#2
Go to tab talk and ask there, you'll get better responses.
R.I.P. My Signature. Lost to us in the great Signature Massacre of 2014.

Quote by Master Foo
“A man who mistakes secrets for knowledge is like a man who, seeking light, hugs a candle so closely that he smothers it and burns his hand.”


Album.
Legion.
#3
Last.FM

Quote by Applehead
There are some things in life that are universally "good":

Sex, pizza, the smell of fresh washing and slap bass.
#4
ɹıɐ lǝq pǝllɐɔ uʍoʇ ɐ ɟo ǝɔuıɹd ǝɥʇ ǝɯɐɔǝq ı ʍoɥ noʎ llǝʇ ll,ı
ǝɹǝɥʇ ʇɥƃıɹ ʇıs ʇsnɾ
ǝʇnuıɯ ɐ ǝʞɐʇ oʇ ǝʞıl p,ı puɐ
uʍop ǝpısdn pǝuɹnʇ pǝddılɟ ʇoƃ ǝɟıl ʎɯ ʍoɥ ʇnoqɐ llɐ ʎɹoʇs ǝɥʇ sı sıɥʇ ʍou
#5
Oh god Fast_Bear, here we go again...
Quote by PatMcRotch
The term grammer nazi is from the camps in the lolocaust made by Adrofl Hitlol...


Quote by Wasted Bassist
Be sure to rape the blue note (augmented 4th). Rape it hard and exploit it like the skank it is.


Founder of the All-Tube Bass Amp Owners Club. PM me to join.
#6
I got in one little fight and my mom got scared and she said
"You're moving with your auntie and uncle in Bel-Air!!"


[EDIT]

On topic thought, I think the bassline goes '5-7' on the A string, and then '5-7-5-7' real quick on the E string. Just keep repeating it.

I may be wrong though.
Quote by Demon Wolf
Man, you even got the melody right. +1000000 points.

Quote by Night_Lights
^thats a brilliant call. *jots in notebook*
Last edited by shotbythepope at Sep 7, 2007,
#7
Lol, actually I play it. I haven't tabbed it yet, though. Maybe I will later today


By the way, that song is AWESOME for soloing to. It's in D# minor, I believe. Not positive, bu I think the chords are are D# minor, A minor, then a passing chord of C# minor without whatever note the middle finger goes on (sorry, can't visualize a fretboard at the moment; too tired).
Last edited by yawn at Sep 7, 2007,
#8
I tabbed it.

Bassline:

e|-----------------------------------------------------------------|
B|-----------------------------------------------------------------|
G|-----------------------------------------------------------------|
D|-----------------------------------------------------------------|
A|--6------6--------4-6------6-------4-6---------------------------|
E|------x-----6-6-x-------x----6-6-x-------------------------------|


Chords:

e|-----------------------------------------------------------------|
B|--7---x--7----------7---x--7---------7---------------------------|
G|--8---x--8--6-6-x-6-8---x--8-6-6-x-6-8---------------------------|
D|--8---x--8--8-8-x-6-8---x--8-8-8-x-6-8---------------------------|
A|--6---x--6--8-8-X-4-6---x--6-8-8-X-4-6---------------------------|
E|------------6-6-x------------6-6-x-------------------------------|


Make sure you get the rhythm right. Very important.