#1
ok i was just listening to breaking benjamin, and it just ****in hit me like a ford mustang doin 80 hits a little fly

|---------------------------------------------------------------------------------------------------|
|---------------------------------------------------------------------------------------------------|
|-1~-.3-.4------.2-.3-7~--9-7-5~--7p6p4---------------------------------------------------|
|-----------2~-------------------------------------------------------------------------------------|


standard tuning
.=stacato
~=let note ring

(just maiin sure if theyre are any new UGers
Quote by SeveralSpecies
How the f*ck are you gonna get a cat to bark?


---------------------------5------8-----7-
----------------5-------------------------
------------------1-3-3-------/6----/5----
-1/3--1-1h3-------------------------------


Matt Freeman>You
#2
if you put in [./CODE] tags without the "."'s then everything will be fixed single spaced characters and its much easier to read etc.

Gear:
Fender Standard Jazz Bass
Artec Matrix Pedal Tuner
BBE Optostomp
Boss GEB 7
EHX NYC Big Muff
Ashdown MAG C410T-300
Torque T100BX
GAS-ing for:
Boss SYB5
Behringer Intelligate IG9
#3
|-----------------------------------------------|
|-----------------------------------------------|
|-1~-.3-.4------.2-.3-7~--9-7-5~--7p6p4---------|
|-----------2~----------------------------------|
Quote by SeveralSpecies
How the f*ck are you gonna get a cat to bark?


---------------------------5------8-----7-
----------------5-------------------------
------------------1-3-3-------/6----/5----
-1/3--1-1h3-------------------------------


Matt Freeman>You
Last edited by TheBassMan3 at Sep 7, 2007,
#7
Whatever it's about, whoever wrote that bassline needs to learn about the existance of the D and G strings, and their purpose in our low end world.
And yet, to me, what is this quintessence of dust? Man delights not me: no, nor woman neither... nor women neither.