#1
G|-----------------|----------0x-0x|-0x---0----|
D|--------------2x|-2x-2x---------|--------2---|
A|-3x-3x-3x-----|-----------------|-----------3|
E |---------------- |-----------------|------------| x2

G|--------------------------------------------------0-00|-------------------0000|
D|-------------------------- 11111111-----0-00-----|------------0000-5555|
A|-00000000-33333333--------------1-11----------|------1111-------------|
E|--------------------------------------------------------|2222-------------------|


What i have so far
Made it off the top of my head
Last edited by Vivalaskater94 at Sep 7, 2007,
#2
Sorry, but this tab is a mess. Try getting powertab or guitar pro or something. It just makes things way easier to tel how to play it.