#1
hi as anewbie whats the easiest way to learn tears in heaven on acoustic.
#2
You are fingerpicking I assume?

If you are using a pick, ditch it. After that, just work on it. If you have looked at basic fingerpicking videos on youtube (there are loads) it should be alright.
#3
im tryin to finger pick but im not 100% sure on understanding the tab for it...
#4
What don't you understand pal. I'll post the tab, you tell me which bit you're struggling with.


E||--------------------|-----------------------------|
B||--------------------|--------2h3p2----5-----5--2--|
G||--------------------|-----2--------2--4-----4--2--|
D||--------------------|-----------------------------|
A||--------------------|--0--------------------------|
E||----------------0h2-|-----------------4--4-----2--|

  F#m        A(onE)         D(onF#)     E7sus4E7    
-------------------------|-------------------------|
-------2-----2-----2-----|--3-----3-----3-----3----|
-------2-----2-----2-----|--2-----2-----2-----1----|
-------------------------|-------------------------|
-------------------------|-------------------------|
----2-----2--0--0-----0--|--2--2-----2--0--0--0----|

  A                           A              E(onG#)F#m 
---------------------------|---------------------------|
--2-----2-----2-----2------|--------2h3p2----5------2--|
--2-----2-----2-----2------|-----2--------2--4------2--|
---------------------------|---------------------------|
--0--0-----0--0--0--0------|--0------------------------|
-----------------------0h2-|-----------------4------2--|
Last edited by ClaptonWannabe at Sep 9, 2007,
#5
just play and play it again and again..
then you will get familiarize with the bit ..
XD
#6
one word.
practice.
best thing a newbie like yourself (or anyone at any skill level for that matter) can possibly do.
Proud Owner of a 2006 Taylor 814 CE-Fall Limited Edition


Quote by MiasmA
guys, i got it. pucture = the rare breed of green fruits that tend to laugh scoffingly and then question a statement. AKA lolwut pears

CASE CLOSED..
#7
If u have a friend or know someone that can play it get them to teach you. If thats not possible, get the tab or sheet music which ever you prefer and try to get footage of someone playing it. Watch how they play it n then practice, practice, practice.