#1
Ok this is for SiKh22.

Plz don't delete this thread mods. He wanted me to tab it out for him. So I did. And I couldn't put it in code on a pm...?

Anyways.

       3        3        3       3            3       3        3        3
   /''''''\ /''''''\ /''''''\ /''''''\    /''''''\ /''''''\ /''''''\ /''''''\ 
E|-15p12----------12-15p12----------12-|-15p12----------12-15p12----------12-|
B|-------15p12h15----------15p12h15----|-------15p12h15----------15p12h15----|
G|-------------------------------------|-------------------------------------|
D|-------------------------------------|-------------------------------------|
A|-------------------------------------|-------------------------------------|
E|-------------------------------------|-------------------------------------|

       3        3         3       3
   /''''''\ /''''''\  /''''''\ /''''''\   H.                         Q
E|-15p12----------12-15p12-------------|-------------------------------------|
B|-------15p12h15----------15p12h15p12-|-17b19-----------------------15------|
G|-------------------------------------|-------------------------------------|
D|-------------------------------------|-------------------------------------|
A|-------------------------------------|-------------------------------------|
E|-------------------------------------|-------------------------------------|


    S  S  S  S  S  S  S  S  S  S  S  S  S  S  S  S
E|-19-19-19-19-19-19-19-19-------------------------|
B|-------------------------19-19-19-19-19-19-19-19-|
G|-------------------------------------------------|
D|-------------------------------------------------|
A|-------------------------------------------------|
E|-------------------------------------------------|

                              3       3         3       3      3  
    S  S  S  S  S  S  S  S /'''''\ /'''''\   /'''''\ /'''''\/'''''\  Q
E|-----------------------------------------|----------------------------|
B|-----------------------------------------|----------------------------|
G|-19-19-19-19-19-19-19-19-----------------|----------------------------|
D|-------------------------19------19------|----------------------------|
A|------------------------------17------17-|-19------19------14------14-|
E|-----------------------------------------|------17------17------12----|


    H.            E   E      Q  E  E  E  E  E  E    E  E  E  E  E  E  E  E
E|-------------------------|----12----------------|-------------------------|
B|-------------------15b17-|-------15-14-12----12-|-------------------------|
G|-------------------------|----------------15----|-14-13-12----12----------|
D|-------------------------|----------------------|----------14----14-12----|
A|-14\-slide-down----------|----------------------|----------------------14-|
E|-------------------------|----------------------|-------------------------|


   E  E  E  E  E  E  E  E    W
E|-------------------------|----------------|
B|-------------------------|----------------|
G|-------------------------|----------------|
D|-12----------------------|----------------|
A|----14-13-12----12----12-|----------------|
E|-------------15----15----|-12\-slide-down-|


    H        H      W      W
E|----------------|------|------|
G|----------------|------|------|
B|-14b16-----12---|-16---|-16---|
D|----------------|tapped|tapped|
A|----------------|------|------|
E|----------------|------|------|

W = Whole Note
H = Half Note
H. = Dotted Half Note
Q = Quarter Note
S = Sixteenth Note

NOTE: Hey sorry about the abbreviations and stuff. I forget how to tab normally
after using Guitar Pro for so long. Lol...
#2
Isnt there already a tab for this?
Equipment

  • Shecter 006 Deluxe
  • Line 6 Spider II 30
  • Harmony Acoustic
  • Dunlop GCB-95 Wah-Wah Pedal
  • Zoom 707 II


Favorite Guitar Player(s)

  • Eric Clapton
  • Brian May
  • Jack White
#4
Ahh, you should suggest powertab to him..that tab is perfect.
Equipment

  • Shecter 006 Deluxe
  • Line 6 Spider II 30
  • Harmony Acoustic
  • Dunlop GCB-95 Wah-Wah Pedal
  • Zoom 707 II


Favorite Guitar Player(s)

  • Eric Clapton
  • Brian May
  • Jack White