#1
I'm not really sure what genre of music this is but I've been working on it for about a week. I think it sounds pretty good, and I'm now working more on the bass. Any suggestions would be appreciated. I think its something like melodic/metalcore/death.
Attachments:
New song.zip
#2
Wow! That was really good. Probably the best I've heard on UG. Really nice flow and alot of melodies and wacky rhythms. The only thing i got against it is at the end of the song where it plays the ostinate in eights. Some of the tones sound off key and that unfortunately doesn't work right there for me. But otherwise, very nice!
#3
more like technical death metal

and it was pretty amazing

it sounds fine with out bass
but if you must
follow the rythm pattern with trem picked notes 1 fret per bar

and can you actually play that?
Quote by metul kult
You know when Attack Attack is ripping off your music, you're onto something


twitter: @victorstaygold
#4
Its really good, but you need to change it at 76.. Should be: (sorry for it being all over the place)

|-----------------------------------|----------------------------------|
|---------------14--15--14----------|--------------14--15--14----------|
|*----------14--------------14------|----------14--------------14------|
|*--12--15----------------------15--|--12--15----------------------15--|
|-----------------------------------|----------------------------------|
|-----------------------------------|----------------------------------|


E E E E E E E E E E E E E E E E
----------------------------------|----------------------------------|
--------------11--13--11----------|--------------11--13--11----------|
----------12--------------12------|----------12--------------12------|
--10--14----------------------14--|--10--14----------------------14--|
----------------------------------|----------------------------------|
----------------------------------|----------------------------------|


E E E E E E E E E E E E E E E E
---------------------------------|---------------------------------|
-------------10--11--10----------|-------------10--11--10----------|
---------10--------------10------|---------10--------------10------|
--8--12----------------------12--|--8--12----------------------12--|
---------------------------------|---------------------------------|
---------------------------------|---------------------------------|


E E E E E E E E E E E E E E E E
-----------------------------|------------------------------||
------------8--10--8---------|------------8--10--8----------||
---------9------------9------|---------9------------9------*||
--7--11------------------11--|--7--11------------------11--*||
-----------------------------|------------------------------||
-----------------------------|------------------------------||


Other than that, i think i would have to agree with the other guy that said this was the best he heard on ug.