#1
Hi everybody,

I've been trying to tab song "From the grave", by Cryptal Darkness. However it is very simple and short song probably I don't have skill to do that. I would be most gratefull if somebody can tab this song. Thnx

Here is the song http://www.sendspace.com/file/wbscpc
#2
is it tuned down? some of the chords seem crazy if i'm hearing it right, although i'm no chord expert by any means.
#3
The low E string is either tuned down or he has a 7th string down there, I put an X in for some notes on that string. Tuning the whole guitar down might make some of the chords easier too, i don't know much about chord theory to know how that would work out though. anyway, here's what i've got:
E|-------3----------------------3---------------------|
B|-------4----------1-----------4---------------------|
G|-----0------------1---------0-----------------------|
D|---1------------1---------1------------1-------1----|
A|-3------------3---------3------------3-------3---3--|
E|------------4----------------------4-----3----------|
  (C minor?)  (G# major?)
 
E|--------------------------------------------------------------|
B|-----------------------------------1--------------------------|
G|--0-0-0--0----0----------------------0------------------------|
D|--3-1-0-/5----3----0---/5-3----1------------------------------|
A|--3-3-3-/6----5----2---/6-5------3----------------------------|
E|--------------------------------------------------------------|


E|--------------------------------------------------------------|
B|--------------------------------------------------------------|
G|--------------------------------------------------------------|
D|-------1--------------3--------------6--------------6-5---5---|
A|---3-----3---3----4-----4---4----7-----7---7----6---6-6-6-6---|
E|-X---3-----3---X----4-----4---X----7-----7---X----6-----6-----|

The first intro chord is brutal if you want all the notes to ring out. I was fretting it with middle finger on 5th string, index on 4th string, pinkie on 2nd, and ring on 1st (high E). The 2nd chord is doable with a pinkie, ring, then bar for the 1st fret. You can replace the two intro chords with much easier bar chords (the Cm and G#, i thnk those are the right names), but you really lose the lower notes that make the mood of the song.