#1


---------------------------------
---------4--7-------------------
--5--7--------------------------
---------------------------------
---------------------------------
---------------------------------



I was messing around on my guitar and came across these notes. It really has a middle east exotic flavour(to my ears anyway) and I was wondering what scale these notes are derrived from?
radiantmoon is the toughest person I know. He inflects a sense of impending doom upon any who look upon his stone-chiseled face. The children run out of fear, while the men run for they know that the stories are true.
#3
Sounds like harmonic minor to my ears.. in this case G harmonic minor. I like it over D7b9 and Dsusb9, making it D phryg dom - but depending on where you go with it, it could be any mode from G harmonic minor.
#4
could u give me a tab of D7b9.
radiantmoon is the toughest person I know. He inflects a sense of impending doom upon any who look upon his stone-chiseled face. The children run out of fear, while the men run for they know that the stories are true.
#5
Sure thing. These are two very common voicings...


 D7b9 Dsusb9
|----------|
|-4------4-|
|-5------5-|
|-4------5-|
|-5------5-|
|----------|