#1
Need some help with the tabs for this song. There are no tabs for this song on any website (Well, one on here, but the tabs suck major ass), there are no clear videos of the band playing live, or even any covers of this song on youtube or any other video site.

Here is a little bit of the intro I figured out from watching a video of Wes play at a radio station:

e|------------------------------------------------|
B|------------------------------------------------|
G|------------------------------------------------|
D|-11----11--11--12---12---12----12-------|
A|--0---0---0----------0----0-----13----13---|
D|------------------------------------------------|

So that's all I've got so far. Someone please tab this song out...please!!!

Thanks
-Matt
#2
This is the only decent live video of the song I have found...

http://www.youtube.com/watch?v=0Jtn_ve-tU0

The verse is somthing like this.


d#|------------------------------------------------|
A#|------------------------------------------------|
F#|-(PM~~~~~~~)------(~~~~~~~~~~)-5----------------|
C#|-0----------3-----5------------5----------------|
G#|-0----------3-----5------------3----------------|
C#|-0----------3-----5-----------------------------|



Not sure about the last chord but its close.I also did'nt do the strum pattern,figure it out lol


Edit:

I think this is the chorus...I think I might be off on a chord somewhere.Also I think the tuning is drop d down a half step,Alot of their songs are.

d#|------------------------------------------------|
A#|-3----------------------------------------------|
F#|-2----------3------------------5----------------|
C#|-0----------3-----5------------5----------------|
G#|-0----------1-----5------------3----------------|
C#|-0----------------5-----------------------------|
Last edited by wes_jett2008 at Sep 14, 2007,