#1
hey, ok so ive been trying like crazy to find tabs for this song: "Yoo Hoo" by Imperial Teen, but havnt found any. its driving me crazy cuz its really catchy and i havnt been playing guitar for very long so if i tryed to tab it out myself, it would take me forever, but i was wondering if any of u tabmasters could possibly help me out

thx,

alex
#2
Hi

I've been trying for MONTHS and still havent found tab for this song - which is my favourite song of all time - but I do know the power chords for it if you want them
#3
I just listened to it on YouTube.

Em x 8

e|--------0----|
B|--------0----|
G|--------0----|
D|--------2----|
A|--------2----|
E|--------0----|

A x 5

e|--------0----|
B|--------2----|
G|--------2----|
D|--------2----|
A|--------0----|
E|--------0----|


e|------------------------------|
B|--------3-------2-------0----|
G|--------3-------2-------0----|
D|--------3-------2-------0----|
A|------------------------------|
E|------------------------------|

That's the whole thing I think. It just repeats.