#2
Maybe it's too late but here we are:

I'm not sure what is his tuning but he use a capo on the 3rd fret.

The versus is something like that :

-----------------
-----------------
-----------------
---2-------------
---0---2-x-x-----
-3---3-0-x-x-----


Just a variation Em - G - Am - G - Em.

Just before the chorus he plays B - C - D - and a full Em:

-------0---------
-------0---------
-------0---------
-4-5-7-2---------
-2-3-5-2---------
-------0---------


Note that it just indicates the notes, not the rhythm. Also this is a by-ear transcription (well almost) and from a live show. It should just gave you some clue about how to play it.

Hope it helps you!