#1
http://www.myspace.com/demonictempestmetal

I really wanna learn "asleep in the tomb" by demonic tempest.
But i suck at figuring stuff out by ear and after a while trying i give up.

So if someone could please tab it out for me in either tab or GP that would be awesome.
and i dont care about the solo unless you feel like you want to tab it.


Thanks, FeLiX


EDIT:
actually i'll give you what i could figure out and you can tell me if its right.


INTRO:

D#|-----------------------------------------------|
A#|-----------------------------------------------|
F#|-------------------5--------4--4---------7--7--|
C#|-2--------5--------5--------4--4---------7--7--|
G#|-2--------5--------3--------2--2---------5--5--|
D#|-0--0-0---3--0-0----0-0----------0-0-----------|
                      
2:15 into song

D#|-------|---------------------------------------------
A#|-------|---------------------------------------------
F#|-------|---------------------------------------------
C#|--2----|---------------------------------------------
G#|--2----|---0h3------------5-3----0h3------------3-2--
D#|--0----|---0h3-000000-3h5--------0h3-000000-3h5------
     ^
     ||
Repeat as many
times as necessary       

D#|-------------------------------------------------|
A#|-------------------------------------------------|
G#|-------------------------------------------------|
C#|-----------------------5--5--------3/5---5~------|
G#|--0h3------------5-3---5--5--------3/5---5~------|
D#|--0h3-000000-3h5-------3--3--0-0---5/7---7~------|


D#|--------------
A#|--------------
G#|---------5*------
C#|---2----------
G#|---2-----------
D#|---0-----------
      ^
     ||
Chug on that 
 a few times


D#|----------------------------------|-------|
A#|----------------------------------|-------|
G#|----------------------------------|-------|
C#|-----2------3-----2------5-----x4-|--5~---|
G#|-----2------3-----2------5--------|--5~---|
D#|-0-0-0--0-0-1--0--0--0-0-3--------|--3~---|
                                        ^
                                        ||                     
                                  End on this


And then the solo. but i dont need that, so... Thanks!
UG's Official Stuffed Toy! Because I am so cuddly wuddly


I LOVE KENSAI
Last edited by RaNdoM-FeLiX at Sep 20, 2007,