#1
Intro:
G|------------------0------------------------------------------- |
D|-------0-------2--------------------------------------2------ |
A|----2-----3---------------------3-3-3-3--0-0-0-0----2---- |
E|-3---------------------3-3-3-3--------------------------2-0 | x2

Verse1
G|-------------------------------------------2222-4444-----------|
D|-----------------------------2222-4444-------------------------|
A|---------------2222-3333----------------------------2-3-------|
E|-3333-2222-----------------------------------------------2-0~-|

G|-------------------------------------------------------------------------------------------|
D|-------------------------------------------------------------------------------------------|
A|------------11-11-11-11-15-15-15-15-12-12-12-12-16-16-16-16----------------|
E|-14-14-14----------------------------------------------------------------14-14-14-14|

Chorus:
G|----------------------------------------------------------------------------|
D|-----------------------------------------2222-0000-4444---------------|
A|----------2222-/8--------2222-3333-------------------------2-3-------|
E|-3333-/7----------3333--------------------------------------3-----2-0~|

Verse2:
G|------------------------4-44-4-44-4-44-4--2-22-2-22-2-22-2-------------------------|
D|-2-22-2-22-2-22-2-------------------------------------------------3-33-3-33-3-33-3-|
A|---------------------------------------------------------------------------------------------|
E|---------------------------------------------------------------------------------------------| x2

Chorus:
G|----------------------------------------------------------------------------|
D|-----------------------------------------2222-0000-4444---------------|
A|----------2222-/8--------2222-3333-------------------------2-3-------|
E|-3333-/7----------3333--------------------------------------3-----2-0~|

Solo:
G|-------------420---------------------|
D|-------0234-----24~-2--------------|
A|--023--------------------3-----------|
E|-3---------------------------3-2-0~--|


my first song
so dont be too mean
#2
Not to be a dick or anything whats is the tempo and the song order. you know how many times do you play blank and blank.
#3
Quote by losing battle
Not to be a dick or anything whats is the tempo and the song order. you know how many times do you play blank and blank.


+1
Quote by cakeandpiemofo
Quote by tuwyci
why are metal musicians prone to fatness?
Cause there music is heavy.


Writing music is hard D: