#1
yea, my friend showed me a song on the guitar, and he didn't tell me the name of the song, but I think he said it was by the Dropkick Murphy's, not positive on that one though, anyway it goes

E|---------------------------------
B|----------------------7-8-------
G|-9-7-9-7-9---7-9--------9-7-
D|---------------------------------
A|---------------------------------
E|---------------------------------

E|----------------------------7----
B|----------------------7-8-------
G|-9-7-9-7-9---7-9-------------
D|---------------------------------
A|---------------------------------
E|---------------------------------

E|---------------------------------
B|----------------------7-8-------
G|-9-7-9-7-9---7-9--------9-7-
D|---------------------------------
A|---------------------------------
E|---------------------------------

E|----------------------------7-5---7---------------
B|----------------------7-8-------8--8-7-8-7-3/5
G|-9-7-9-7-9---7-9--------------------------------
D|----------------------------------------------------
A|----------------------------------------------------
E|----------------------------------------------------
#2
I'm Shipping Up To Boston - Dropkick Murphys

(It's also horribly wrong)
Metal Head

One Day, We'll All Go Into The Water.
Go, Into The Water, Live There, Die There.

Gear
Squier Stratocaster
Jackson Pro Series Kelly
Jackson Dinky Sustaniac
Roland Cube 60
Peavey Triple XXX Stack
#5
It's in The Departed.
Nice boppy Irish tune.
Metal Head

One Day, We'll All Go Into The Water.
Go, Into The Water, Live There, Die There.

Gear
Squier Stratocaster
Jackson Pro Series Kelly
Jackson Dinky Sustaniac
Roland Cube 60
Peavey Triple XXX Stack