#1
I've been trying to tab out the intro to the song "Bulls make money, Bears make money, Pigs get slaughtered" by Chiodos and I can't seem to figure it out.
Any other fans wanna lend me a hand?

Song: http://www.youtube.com/watch?v=xzZQSIRYloA

This is what I have so far. It just doesn't seem right, it's way too hard. Is there a different way to play it? I can't fathom any way to move it to a new string.

Standard Tuning
|--5p0h1h5p0h1h5---5p0h1h5p0h1h5--10p0h6h10p0h6h10-------|
|--3-----3-----3---3-----3-----3--8------8------8--------|
|--------------------------------------------------------|
|--------------------------------------------------------|
|--------------------------------------------------------|
|--------------------------------------------------------|
Last edited by daltonator9690 at Sep 25, 2007,
#5
I would say just look at one of their videos for this song on youtube but I don't think anyone has ever filmed them playing this song... or at least a good quality video for you to see the guitar players finger positionings.
#6
Maybe start it off like this.

Standard Tuning
|--5p0h--5p0--5-----------| x2
|--6----6----6------------|
|--7----------------------|
|-------------------------|
|-------------------------|
|-------------------------|