#1
I took a slight break from guitar recently, not too long... But I'm feeling a bit rusty..

Does anyone have a nice fluent arpeggio style riff involving all the strings..? Something to get me back on track again =)

Here's something identical to what I'm after..



Thanks for all the help
#2
With triplets:

|--------------------------12--15--12--------------|
|----------------------12--------------12----------|
|------------------12----------------------12------|
|--------------14------------------------------14--|
|----------14--------------------------------------|
|--12--15------------------------------------------|
=>Fender Highway 1 Stratocaster with Alnico V Holydiver Bare Knuckle bridge humbucker

=>40 Watt RMS Yorkville Traynor YCV-40 valve amplifier

=>30 Watt Tech 21 NYC - Trademark 30 solid amplifier

=>Dunlop GCB-95 Crybaby pedal
Last edited by SdKfz at Sep 21, 2007,
#3
Quote by SdKfz
With triplets:

|--------------------------12--15--12--------------|
|----------------------12--------------12----------|
|------------------12----------------------12------|
|--------------14------------------------------14--|
|----------14--------------------------------------|
|--12--15------------------------------------------|


+1

and oh yeah man how do you like your crybaby pedal? im willing to get one of those


oh yeah and also
try the spider excerise from joe satriani from pinky strength and relfexes
#4
The Crybaby is great, but try it first. How do you know I have one?
OK I'll check out the excersice
=>Fender Highway 1 Stratocaster with Alnico V Holydiver Bare Knuckle bridge humbucker

=>40 Watt RMS Yorkville Traynor YCV-40 valve amplifier

=>30 Watt Tech 21 NYC - Trademark 30 solid amplifier

=>Dunlop GCB-95 Crybaby pedal
#5
Quote by SdKfz
The Crybaby is great, but try it first. How do you know I have one?
OK I'll check out the excersice


It says in your sig
#6
Pretty standard sweep pattern...

|-----------------------12-15-t19-15-12------------------|
|--------------------13---------------------13--------------|
|-----------------12---------------------------12-----------|
|--------------14---------------------------------14--------|
|-----------15---------------------------------------15~~-|
|-------------------------------------------------------------|

A little easier than the one posted by "SdKfz" cuz you dont have to roll your finger on the way back up the fretboard. Tapping the 19th fret is optional.. I think thats right I dont have my guitar in front of me :P
To live is to Die...
#7
Here's something I whipped up as an excercise in fluidity about a week ago for myself, I don't know how much it'll help though:



Lots of slides and stuff...but I think the tapping makes it unfit for this, too complicated. The above things the other users mentioned are good.

EDIT: Yeah, nevermind, it's kinda overkill v_v If anybody else is interested...
Last edited by wasp2020 at Sep 21, 2007,
#9
Quote by jparks
Pretty standard sweep pattern...

|-----------------------12-15-t19-15-12------------------|
|--------------------13---------------------13--------------|
|-----------------12---------------------------12-----------|
|--------------14---------------------------------14--------|
|-----------15---------------------------------------15~~-|
|-------------------------------------------------------------|

A little easier than the one posted by "SdKfz" cuz you dont have to roll your finger on the way back up the fretboard. Tapping the 19th fret is optional.. I think thats right I dont have my guitar in front of me :P


Cool I'm gonna give that a shot tomorrow.
#10
Quote by sum_ugly_man
+1

and oh yeah man how do you like your crybaby pedal? im willing to get one of those


oh yeah and also
try the spider excerise from joe satriani from pinky strength and relfexes


Don't get the GCB-95 unless you want to do some modding. It's not that good stock. Just FYI. I own one and did some mods to get a good sound out of it.
Quote by dudetheman
So what? I wasted like 5 minutes watching DaddyTwoFoot's avatar.


Metalheads are the worst thing that ever happened to metal.