#2

           747 (Strangers in the Night)                                               


                                                                                                                   Saxon
Guitar 1 - Paul Quinn


     Q     Q       H             E   E   E   Q       E   E   E      E    E   Q      H          
D||-------15br----15~--------|--12------------------------------|-----------------------------|
A||--------------------------|------15--12--------------12------|-----------------------------|
F||--------------------------|--------------14br----12------12--|--12b------12b----12~--------|
C||--------------------------|----------------------------------|-------14--------------------|
G||--------------------------|----------------------------------|-----------------------------|
D||--------------------------|----------------------------------|-----------------------------|


  Q    E   E   E   E   Q         Q      Q.      E   Q        Q     E   E   Q     E   E      Q     H         E   E   
-----------------------------|---------15b---------17b----|--L----17--19--17------------|--------15--------12------|
----------12--15--12--15b----|--15b-----------------------|---------------------17--15--|--17------------------15--|
--L--------------------------|----------------------------|-----------------------------|--------------------------|
-----------------------------|----------------------------|-----------------------------|--------------------------|
-----------------------------|----------------------------|-----------------------------|--------------------------|
-----------------------------|----------------------------|-----------------------------|--------------------------|


   E   E   E   H        E     E   E   Q     H            E   E   H.               E   E   Q     E   E   E   E   
---------------------------|-------------------------|------------------------|--------------------------------|
---------------------------|-------------------------|------------------------|--------------------------------|
--14--12--14--12-----------|-------------------------|------------------------|----------------14--16---L--14--|
---------------------------|-----14--14----14--------|--14--17--14------------|--14--16--17--------------------|
---------------------------|-------------------------|------------------------|--------------------------------|
---------------------------|-------------------------|------------------------|--------------------------------|


   Q     H         E   E      E   E   H           E   E      E   E   E   E   Q     E   E   
----------------------14--|--15--17--17br--------15--14--|--15--14------------------------|
--15----17--------17------|------------------------------|----------15--14---L----15--14--|
--------------------------|------------------------------|--------------------------------|
--------------------------|------------------------------|--------------------------------|
--------------------------|------------------------------|--------------------------------|
--------------------------|------------------------------|--------------------------------|


   E   E   E   E   E   E   Q        E   E   E   E   E   E   E    E      Q    Q    H           W                 
--------------------------------|-----------------------------------|----------------------|-------------------|
--------------------------------|--12-------------------------------|----------------------|-------------------|
--16--14--16--14----------------|--12-------------------------------|----------------------|-------------------|
------------------14--12--14----|------14--12-----------------------|----------------------|-------------------|
--------------------------------|--------------14--13--12--10--/10--|---L------------------|-------------------|
--------------------------------|-----------------------------------|----------------------|-------------------|

Yeah Dimebag is not the "Greatest Guitarist" of all time... Hendrix maybe... I must go get food to eat with my mouth

$250 for an amp? wow. is it worth it to invest that much in the amp?