#1
Just wondered if anyone'd like to rate this little riff I came up with.. Don't often come up with tabs myself, But I was just messing around and meh..

Posted here 'cause, well, it's a bass tab and this is the bass section =]

G--------------------------------------------------------------------------
D--------------------------------------------------------------------------
A--------------------------------------------------------------------------
D-2-22/5555-4-44/12121212~--2-22/5555-4-44/12121212-


Can't really describe the timings, but it's s'posed to be slowish and metal sounding.

And those are 12's, not 1's and 2's =D

All comments and suggestions to build on it are welcome. I'll try and get a sound clip up if people feel they need it.

Cheers one and all.
#5
Needs more scale/tapping
Quote by hightension01


Tell her
"I could be playing this *inserts Job For a Cowboys Doom Cd*
but i'd rather play this *inserts *David Crowder followed by Brewster*"

haha yeah that should work


Quote by Aqua Dementia
richrawr FTW!
#6
g----
d----------------------------------------------12---
a---------------4-5-4-------------------12--------
d----2-2-2/5----------5-4-4-4/-12--------------

in 3/4 timing.
little more interesting
#7
Quote by kw!nton
g----
d----------------------------------------------12---
a---------------4-5-4-------------------12--------
d----2-2-2/5----------5-4-4-4/-12--------------

in 3/4 timing.
little more interesting

Those 12 can be replaced with other notes.