#1
Could someone please tab out the solo for To Her Door by Paul Kelly. I could only work out the first part, which is on the bottom E string.

E --3-3-3-3-5---7--- | --3-3-3-3-5---7--- ||
#4
E||----------------------|--------------------|----------------------|
B||----------------------|--------------------|----------------------|
G||----------------------|--------------------|----------------------|
D||----------------------|--------------------|----------------------|
A||----------------------|--------------------|----------------------|
E||--3----3----3----3----|--5----7------------|--3----3----3----3----|



--------------------|----------------------|-------------------------|
--------------------|----------------------|-------------------------|
--------------------|----------------------|-------------------------|
--------------------|----------------------|-------------------------|
--------------------|----------------------|---------5---l-----------|
--5----7------------|--3----3----3----3----|--5-7----------7-5----3--|



------------------------|------------------------|---------------------|
------------------------|------------------------|---------------------|
------------------------|------------------------|---------------------|
------------------------|------------------------|---------------------|
----------------5----5--|--l--5------------------|---------------------|
--l--0----5--7----------|----------7----5--l--3--|--l------------l--l--|



----------------------|--3--------10----10----|--10-----8-----8-----8----|
----------------------|--3--------12----12----|--12----10----10----10----|
----------------------|--4--------------------|--------------------------|
-----------------5----|--5--------------------|--------------------------|
--5----7----5---------|-----------------------|--------------------------|
----------------------|-----------------------|--------------------------|



--7----7----7----5----|--5----5----3----3----|--3-----------------|
--8----8----8----7----|--7----7----5----5----|--3------------3----|
----------------------|----------------------|---------------2----|
----------------------|----------------------|--------------------|
----------------------|----------------------|--------------------|
----------------------|----------------------|--------------------|



-------3--------3--l--|--3--------3----l----|--3----3----3--------|
--3----3--------3--l--|--5--------5----l----|--5----3-------------|
--4----4--------4--l--|--4--------4----l----|--4----4-------------|
----------------------|---------------------|---------------------|
----------------------|---------------------|---------------------|
----------------------|---------------------|---------------------|



--5----l----5----5----|--3--------3----5----|--3---------3---------|
--7----l----7----7----|---------------------|-------5---------5----|
--7----l----7----7----|---------------------|----------------------|
----------------------|---------------------|----------------------|
----------------------|---------------------|----------------------|
----------------------|---------------------|----------------------|



----------------------|---------------------|---------------------|
--3-------------------|---------------------|---------------------|
-------4----2----0----|--l----0--------0----|--l------------------|
----------------------|---------------------|---------------------|
----------------------|---------------------|---------------------|
----------------------|---------------------|---------------------|