#1
can anyone plz tell and explain me how to do this
 
  F                 Am             F                  Am 
E---|-------3-----|-------3-----|-------3-----|-------3----|
B---|-------3-----|-------3-----|-------3-----|-------3----|
D---|-----0---0---|-----0---0---|-----0---0---|-----0---0--|
G---|---0---------|---2---------|---0---------|---2--------|
A---|-------------|-------------|-------------|------------|
E---|-3---------2-|-0---------2-|-3---------2-|-0---------2| 
Last edited by dj-lynx at Sep 28, 2007,
#4
Just keep the 3rd fret on the 1st and 2nd string held down with the pinky and the ring finger and use your middle and index finger to play the rest, strumming each string seperately for the notes. I'm guessing that since the first line is moved up you play the 3rd fret on the bottom 2 strings together.

This actually sounds pretty good if you change that pesky F sharp note on the 6th string to an open D string on the last note of each measure
Epiphone Les Paul Standard
Dunlop Crybaby Wah
Boss DS-1 Distortion
Boss NS-2 Noise Suppressor
Marshall JCM2000 DSL401
Last edited by philipp122 at Sep 27, 2007,
#6
Quote by philipp122
Just keep the 3rd fret on the 1st and 2nd string held down with the pinky and the ring finger and use your middle and index finger to play the rest, strumming each string seperately for the notes. I'm guessing that since the first line is moved up you play the 3rd fret on the bottom 2 strings together.

This actually sounds pretty good if you change that pesky F sharp note on the 6th string to an open D string on the last note of each measure


Could you explain a bit more please?
#7
Why does it say F and its a G chord? And its a A7sus4 chord too, not Am. Where've you got this from?
#9
Wow, I didn't even notice that the tuning is different. This is kind of weird. Are you sure it's right? I didn't even look at the note names or the tuning when I posted earlier because I was in such a rush.

Sorry, not really sure what's up with that...
Epiphone Les Paul Standard
Dunlop Crybaby Wah
Boss DS-1 Distortion
Boss NS-2 Noise Suppressor
Marshall JCM2000 DSL401
#10
I think the funny tuning is a typo...

TS, just fingerpick it...and ignore what the other guy said about the F# note, seeing as there's no F# anywhere in that tab.
Actually called Mark!

Quote by TNfootballfan62
People with a duck for their avatar always give good advice.

...it's a seagull

Quote by Dave_Mc
i wanna see a clip of a recto buying some groceries.


stuffmycatswatchontv.tumblr.com
Last edited by steven seagull at Sep 29, 2007,
#11
Quote by dj-lynx
I got it frm hallelujah jeff buckley

Thats kinda close then. Hallelujah is capo'd at the 5th fret and plays Am7 - C.


E --------------------------------------------------------------
B --------3------------3------------3------------3--------------
G --------0-0----------0-0----------0-0----------0-0------------
D ------0------------0------------0------------0----------------
A ----2------------2------------2------------2------------------
E --3---------2--0---------2--3---------2--0---------2----------


Taken from Here