#1
I heard it's in a different tuning, most likely a half step down from standard.
http://youtube.com/watch?v=_udgJ1Ex5Qc

Believe me I tried, and all I could figure out were the first two chords, I think. It looks like an Am and C but without the C note on the second string for both chords. Can someone please help me figure out the rest?
#3
bump =/. I saw that one tab on google with the heavily messily formatted text, but it just doesn't sound right.
#4
Verse
|----------------|
|--0-----0------|
|--4-----4------|
|--2-----2------|
|--3-----0------|
|----------------|


The world is full of noise yeah
|---3---0--------0----|
|---5---1---0---0----|
|---4---2---9---0----|
|---x---2---7---0----|
|---3---0---8---2----|
|-----------------3----|


I thought I heard you whisper, it happens all the time
|---0--------3---|
|---x---1---0---| (add a 2 to the G after a bar)
|---4---2---0---|
|---2---2---0---|
|---0---3---2---|
|--------1---3---|


It's half step down. The first chord of the prechorus is wrong, but it sounds OK. My high e string is broken right now so I couldn't tab it with confidence. I'll get around to updating this in a few days.
Last edited by mrkloux at Mar 14, 2010,
#5
There is another way I have seen which I think sounds really good, and is pretty easy:

tune down 1/2 step, same first two chords as above, but then try this for the chorus, starting with "the world is full of noise, yeah"

l-------------------------l
l-------------------------l
l---0----5---10------- -l
l---5----7---10----5---l
l---7----0---0------5-- l
l---------------------3-- l
Last edited by jareddkeller at Oct 9, 2010,