#1
I need a little help, I would like to play "Sweet Child of Mine" but I am not sure what would be the best way to press certain strings on a specific part.

Guitar (Slash) - Chorus
|---------------------------------|
|------14------------15---------|
|-----------14------------14----|
|----------------14--------------|
|-11-----------------------------|
|---------------------------------|

---1---4---3----2----4----3 - Fingers
--------?---?----?

This ist how I would do it, the question is, is there an easier or more professional way of pressing those strings, as I would do it now it feels a bit uneasy since I do not have enough space
#2

|-------------------------------|
|------14------------15---------|
|-----------14------------14----|
|----------------14-------------|
|-11----------------------------|
|-------------------------------|
  1    3     3    3   4    3
Demolition hands.... Got 'em!
Last edited by merfsullivan at Oct 3, 2007,
#5
I'm at work and can't see whether this video answers your question but remember'd coming across it before:

(30 minute long lesson for playing sweet child o mine):
http://www.youtube.com/watch?v=kGJUc9SIgPE
2002 Muddy Waters Fender Telecaser (MIM) (w/ Bill Lawrence pickups & black matte pickguard)
2006 Ibanez sz520qm (w/ Grover tuners)
Epiphone DR-100

Traynor YCV50-Blue
Toneport GX / Ampltube 2