#1
Alright i went to all-guitar-chords.com and checked out the phrygian scale in C pattern 1 and it gave me this


|------4--3--1------------------------------------------------
|---------------4--2--1---------------------------------------
|------------------------3--1--0------------------------------
|---------------------------------3--1------------------------
|---------------------------------------4--3--1---------------
|------------------------------------------------4--3--1------

|------------------------------------------------1--3--4------
|---------------------------------------1--2--4---------------
|------------------------------0--1--3------------------------
|------------------------1--3---------------------------------
|---------------1--3--4---------------------------------------
|------1--3--4------------------------------------------------

Does it start like EBGDAE
Or EADGBE?
Cancer.
#2

e|------------------------------------------------1--3--4------
B|---------------------------------------1--2--4---------------
G|------------------------------0--1--3------------------------
D|------------------------1--3---------------------------------
A|---------------1--3--4---------------------------------------
E|------1--3--4------------------------------------------------


That's what you want, but you might want to look into getting the full scale not just the 1st pattern.
D:
Signature.
#3
Yes, I know i just decided it'd be easier to take it one pattern at a time
cuz looking at all the patterns at once gets kinda confusing.
Cancer.