#1
I got this from some guy who tabbed out the guitar duel in crossroads in that bit that sort of sounds like Paganini's fifth caprice, im pretty sure he copied them of some other guy, but these arpeggios seem to be clunky and you cant really sweep pick them. Any one got any ideas about it?
thanks GUS


( Am )
|----------------------------------8--12-8--------------------------------------
|----------------------------10----------------10-------------------------------
|---------------------5--9---------------------------9--5-----------------------
|----------------7---------------------------------------------7-----------------
|----------7-------------------------------------------------------5-------------
|--5--8-----------------------------------------------------------------8-------


( E7 )
----------------------------------7-------------------------------------
------------------------------9-------9---------------------------------
----------------------7--9----------------9--7-------------------------
---------------6--9-------------------------------9--6-----------------
------5--7-----------------------------------------------7--5----------
--7----------------------------------------------------------------------


( A7 )
--------------------------------5----------------------------------------
-------------------------5--8-----8--5---------------------------------
---------------------6--------------------6-----------------------------
--------------5--7----------------------------7--5---------------------
----------7-------------------------------------------7-----------------
-5--9-----------------------------------------------------9------------



( Dm )
---------------------------------10---13---10--------------------------------
----------------------------10-------------------10----------------------------
--------------------7--10-----------------------------10--7-------------------
---------------7------------------------------------------------7---------------
------5---8---------------------------------------------------------------------
--5------------------------------------------------------------------10---8----


( G# dim7 )
-------------------------------------------------------------------------------------
----------------------------------9---12---9---------------------------------------
----------------------------10-------------------10--7----------------------------
-------------------9--12----------------------------------9---6-------------------
----------8--11-----------------------------------------------------8--------------
-7--10-------------------------------------------------------------------7---------


( Am )
--------------------------------------------------5-------8--------12----8---16-
-----------------------------------------5-----------5-------10-------------------
-------------------------------5------------5--------------------------------------
-------------------7----------------7----------------------------------------------
-------7----------------7----------------------------------------------------------
--5----------8---------------------------------------------------------------------
#2
im not really sure how youd like anyone to explain how to sweep pick those... all i can say for sure is that the last one isnt much of a sweet picking pattern, is it?