#1
I need a song for spanish class, for a grade we have to present something spanish and I want to play a spanish song on bass. spanish sounding atleast. Im not that good so it needs to be farely simple and learnable in a month, ive been playing for 3 months now also so Im not a complete noob. Thanks so much!
#2
G --0-5-0-5-0-5-0-5-7-5-4-4-5-7------------|
D -------------------------------------------------|
A -------------------------------------------------|
E -------------------------------------------------|

G -0-4-0-4-0-4-0-4-5-4-2-2-4-5-------------|
D -------------------------------------------------|
A -------------------------------------------------|
E --------------------------------------------------|

G -4-3-4-1-0-1---------------------------------|
D -------------2-1-2-----------------4-6-7-4---|
A -------------------2---------4-6-7-----------|
E -----------------------4-5-7-----------------|

G -------------------------4-4-4-6-4------------|
D -7-6-7-4-3-4-1-0-1-------------7-6-4------|
A -------------------------2-----------------7----|
E -------------------------------------------------|

The Mexican Hat Dance.

Sorry the format is a lttle wack.
#3
Quote by Captain Insano
G --0-5-0-5-0-5-0-5-7-5-4-4-5-7------------|
D -------------------------------------------------|
A -------------------------------------------------|
E -------------------------------------------------|

G -0-4-0-4-0-4-0-4-5-4-2-2-4-5-------------|
D -------------------------------------------------|
A -------------------------------------------------|
E --------------------------------------------------|

G -4-3-4-1-0-1---------------------------------|
D -------------2-1-2-----------------4-6-7-4---|
A -------------------2---------4-6-7-----------|
E -----------------------4-5-7-----------------|

G -------------------------4-4-4-6-4------------|
D -7-6-7-4-3-4-1-0-1-------------7-6-4------|
A -------------------------2-----------------7----|
E -------------------------------------------------|


The Mexican Hat Dance.

Sorry the format is a lttle wack.


Code fixes that...the mexican hat dance is always fun to play
Last.FM

Quote by Applehead
There are some things in life that are universally "good":

Sex, pizza, the smell of fresh washing and slap bass.