#1
do u know what scale this would be?

|------------------------------------------------------------|
|--12-12-13-13----------12-12-----------------------|
|-------------------14-14-----------12-12-14-14-----|
|--------------------------------------------------------14-|
|------------------------------------------------------------|
|------------------------------------------------------------|
Quote by bambi_slaughter

what sound does a baby make when you put it in a blender?
i dunno, i was to busy masturba ting.

Quote by maroon5mustdie
EVH. I saw him in concert. And his brother was seriously the worst bass player I've ever seen.

Quote by operation ktulu
if my guitar had a pussy, i would never leave my room
#2
E minor...
My rig, homes:
Godin Freeway Floyd w/ Bill Lawrence XL-500 in bridge
Dunlop Wylde Wah
Boss DD-6 Digital Delay
Crate XT120R
SIT Strings 9-42
Dunlop Gator Grip picks 1.5mm

Want:
MIM Telecaster
Ibanez RG 1570
Crate Blue Voodoo
#3
depends on what progression is played under it, but i'm thinking G major (after that last note, pick the 12th fret of the g string, it sounds like it resolves there)
Traynor YCV50 Blue
epi les paul w/ SD Alnico II pros
Dunlop Slash Wah
EH Deluxe Memory Boy
Moen Jimi Vibe
Danelectro Cool Cat Fuzz
Zvex Vexter Fuzz Factory
VHT 2x12 w/ V30's
#4
well im using it in a song intro and im trying to find the lowest note possible i can use as a powerchord to make that sound good.
Quote by bambi_slaughter

what sound does a baby make when you put it in a blender?
i dunno, i was to busy masturba ting.

Quote by maroon5mustdie
EVH. I saw him in concert. And his brother was seriously the worst bass player I've ever seen.

Quote by operation ktulu
if my guitar had a pussy, i would never leave my room
#6
Well, E minor and G major are essentially the same notes, but here it resolves to an E, which makes it E minor.
Quote by Dirge Humani
Quote by Grundy0
Do you have any idea what your talking about? Because i can't understand half of what your saying and i think you are possibly clinically insane
Welcome to The Pit.


^
#7
Quote by MetallicSoul92
do u know what scale this would be?

|------------------------------------------------------------|
|--12-12-13-13----------12-12-----------------------|
|-------------------14-14-----------12-12-14-14-----|
|--------------------------------------------------------14-|
|------------------------------------------------------------|
|------------------------------------------------------------|



Well the notes are b, c, a, g, e
It could either be C major(A minor) or G major(Eminor).
Probally E minor because it ends with an E, and E minor is uber common.
Quote by BigFatSandwich
it took you 15 consecutive hours of practice to realize that playing guitar makes you better at playing guitar. congratulations.


Quote by snowbert
SMOKE UN-DER WATER!!!