#1
hey could someone put this on guitar pro for me? i tried doing it myself on it but im not too familiar with it and dont know how so if theirs someone that could do it for me i'd apresiate much.

http://youtube.com/watch?v=7f68rtRaaqY
^^^this is how the song goes just in case you need it

e 12-14-17-15-14-15----------------12-14-15-12-19-22-20--------------17-19-20-19--<>
b ----------------------------12----------------------------------------------------------------------------<>
g ------------------------------------------------------------------<>
d ------------------------------------------------------------------<>
a ------------------------------------------------------------------<>
e ------------------------------------------------------------------<>

e -17-12-15------17-15-14-------14-15-14----------------------14-12-----<>
b-----------------------------------------------------------12-12-----------<>
g -------------------------------------------------------<>
d -------------------------------------------------------<>
a -------------------------------------------------------<>
e -------------------------------------------------------<>

e -12-14-17-15-14-15------------<>
b --------------------------------12---<>
g -------------------------<>
d -------------------------<>
a -------------------------<>
e -------------------------<>

e --12-14-15-12-----19-22-20---------------17-19-20-19-17-12-15--<>
b -------------------------------------------------------------------------------------<>
g --------------------------------------------------------------------------------------<>
d ---------------------------------------------------------------------------------------<>
a ----------------------------------------------------------------------------------------<>
e ------------------------------------------------------------------------------------------<>

e -17-15-14--14-15-14-----------------14-12--------19--------14-----------------------<>
b----------------------------------12-12----------------------------------------12-12-------------<>
g -------------------------------------------------------16----------16-----------------------------<>
d ------------------------------------------------------------------------------------------------<>
a ----------------------------------------------------------------------------------------------<>
e ----------------------------------------------------------------------------------------------<>

e -------14-15---------------------14-15-15------17-15-14-14-15-14------------<>
b -12--------------13------13------------------------------------------------------12--------<>
g --------------------------------------------------------------------------------------------------<>
d ---------------------------------------------------------------------------------------------------<>
a ---------------------------------------------------------------------------------------------------<>
e ------------------------------------------------------------------------------------------------<>

e ---------14-12---------19---------14---------------------------14-15---------------------------14--<>
b --12-----------------------------------------12-12------12----------------13----------13-------------<>
g---------------------16-------16-----------------------------------------------------------------------------<>
d ----------------------------------------------------------------------------------------------------------------<>
a ------------------------------------------------------------------------------------------------------------------<>
e ---------------------------------------------------------------------------------------------------------------<>

e -------14---15-15----17-15-14----15--------------12----------<>
b --13----------------------------------------------12--------------<>
g ------------------------------------------------------------------------<>
d -------------------------------------------------------------------------<>
a ----------------------------------------------------------------------<>
e ------------------------------------------------------------------------<>
#2
Give me your e-mail and I'll send you the guitar pro file. I do like transcribing music and out of boredom I transcribed this one.
#7
There, sent. It isn't all of it but it'll get you started, I got interrupted while doing it, but you can finish it yourself I'm sure