#1
on the epiphone website, the mainpage is an adevrtisment for their goth series, and when you click on it it can let you listen to samples of their guitars.
what riff is the explorer playing?
its top
#2
This is a multi guitar part.

The lowest line goes like this:


----------------------------------
----------------------------------
----------------------------------
---------------------------------9
---2---2---3---3---3---5---5--5--9
-00--00--00--00--00--00--00-0----7


Then there's the higher part:

-------------------------------2----2----0
----5---5--------5---5---5---33---33-----0
--------------44--44--44------------------
-22--22-----------------------------------
------------------------------------------
------------------------------------------
You've read it, you can't un-read it!