#1
does any1 know the trough fire and flames irish riff, its the only part of the song i want, and i cant find it... plzzzz help
#2
are you sure its irish its sounds more oriental to me
!PRS Custom 24 ten top!
Ric 4001!!
Fender Cyclone 2
2x Harmony Acoustics
Goya 107 Range Master

Quote by x8blitzkid8x
people ruin metal like a7x.
#5

Guitar Solo
  C5
  Gtr II
                             PM|
|----------------|---------------[6]--|
|-8-8--6-8-6-----|--8--8-----6-8------|
|------------8-5-|---------8----------|
|----------------|--------------------|
|----------------|--------------------|
|----------------|--------------------|
|
| Gtr III
|                            PM|
|----------------|--------------------|
|----------------|---------------[8]--|
|-8-8--7-8-7-----|--8--8-----7-8------|
|------------8-5-|--------10----------|
|----------------|--------------------|
|----------------|--------------------|
|
| Gtr I
|----------------|--------------------|
|----------------|--------------------|
|-5--------------|-(5)----------------|
|-5--------------|-(5)----------------|
|-3--------------|-(3)----------------|
|----------------|--------------------|


  Ab5                         Bb5
|-11-11-(11)-10-11-13-15-11-|-15-13-11-13-(13)----|
|---------------------------|---------------------|
|---------------------------|---------------------|
|---------------------------|---------------------|
|---------------------------|---------------------|
|---------------------------|---------------------|
|
|---------------------------|---------------------|
|---------------------------|---------------------|
|--8--8--(8)--7--8-10-12--8-|-12-10--8-10-(10)----|
|---------------------------|---------------------|
|---------------------------|---------------------|
|---------------------------|---------------------|
|
|---------------------------|---------------------|
|---------------------------|---------------------|
|---------------------------|--3------------------|
|--6------------------------|--3------------------|
|--6------------------------|--1------------------|
|--4------------------------|---------------------|


  C5
|-[6]------------6-11-|-/[15]-11-15-16--/18-16p15----|
|-----8---------------|---------------------------16-|
|-------8-[8]--8------|------------------------------|
|---------------------|------------------------------|
|---------------------|------------------------------|
|---------------------|------------------------------|
|
|---------------------|------------------------------|
|--8-------------8-11-|-/[16]-11-16-18--/20-18p16----|
|-----8---------------|---------------------------15-|
|-------8-[8]--8------|------------------------------|
|---------------------|------------------------------|
|---------------------|------------------------------|
|
|---------------------|------------------------------|
|---------------------|------------------------------|
|--5------------------|---(5)------------------------|
|--5------------------|---(5)------------------------|
|--3------------------|---(3)------------------------|
|---------------------|------------------------------|


  Ab5                    Bb5
|-11-11-6-11-11-6------|-6----------------|
|------------------9-8-|---8-----6-(6)----|
|----------------------|-----[8]----------|
|----------------------|------------------|
|----------------------|------------------|
|----------------------|------------------|
|
|----------------------|------------------|
|-11-11-8-11-11-8------|-8----------------|
|-----------------10-8-|---8-----7-(7)----|
|----------------------|-----[8]----------|
|----------------------|------------------|
|----------------------|------------------|
|
|----------------------|------------------|
|----------------------|------------------|
|----------------------|-3----------------|
|--6-------------------|-3----------------|
|--6-------------------|-1----------------|
|--4-------------------|------------------|


  C5
                                     ~~~
|------------------|----------------[6]--|
|---6-8-6-8-6------|-----6-8-6-8--9------|
|--------------8-5-|---------------------|
|------------------|---------------------|
|------------------|---------------------|
|------------------|---------------------|
|
|------------------|---------------------|
|------------------|----------------[8]--|
|---7-8-7-8-7------|-----7-8-7-8-10------|
|-------------10-5-|---------------------|
|------------------|---------------------|
|------------------|---------------------|
|
|------------------|---------------------|
|------------------|---------------------|
|-5----------------|-(5)-----------------|
|-5----------------|-(5)-----------------|
|-3----------------|-(3)-----------------|
|------------------|---------------------|


  Ab5                                          Bb5
   T    T    T    T     T     T     T    T                 ~~~~~~~~~~~
|-11-6-11-6-11-6-----------------------------|--/6--8-10-[11]----(11)-|
|----------------13--9-13--9-13--9-11-8-11-8-|------------------------|
|--------------------------------------------|------------------------|
|--------------------------------------------|------------------------|
|--------------------------------------------|------------------------|
|--------------------------------------------|------------------------|
|
|  T    T    T    T     T     T     T    T                 ~~~~
|--------------------------------------------|------------13-----(13)-|
|-11-8-11-8-11-8-----------------------------|--------11--------------|
|----------------13-10-13-10-13-10-12-8-12-8-|-/12-12-----------------|
|--------------------------------------------|------------------------|
|--------------------------------------------|------------------------|
|--------------------------------------------|------------------------|
|
|--------------------------------------------|------------------------|
|--------------------------------------------|------------------------|
|--------------------------------------------|---3--------------------|
|--6-----------------------------------------|---3--------------------|
|--6-----------------------------------------|---1--------------------|
|--4-----------------------------------------|------------------------|


  C5
|-15-15-(15)-15-13-15-13-------|-15--15-(15)-15-13-13-15-20--|
|------------------------16-13-|-----------------------------|
|------------------------------|-----------------------------|
|------------------------------|-----------------------------|
|------------------------------|-----------------------------|
|------------------------------|-----------------------------|
|
|------------------------------|-----------------------------|
|------------------------------|-------------------------13--|
|-12-12-(12)-12-10-12-10-------|-12--12-(12)-10-12-10-12-----|
|------------------------13-10-|-----------------------------|
|------------------------------|-----------------------------|
|------------------------------|-----------------------------|
|
|------------------------------|-----------------------------|
|------------------------------|-----------------------------|
|--5---------------------------|-(5)-------------------------|
|--5---------------------------|-(5)-------------------------|
|--3---------------------------|-(3)-------------------------|
|------------------------------|-----------------------------|


  Ab5                                                         Bb5  Ab5 G5  F5
|-18p15----15-16p13-15p11----11-15p11-13p10----10-|-/16-16-16-/18--/16-/15-/10--||
|-------16----------------13----------------11----|-----------------------------||
|-------------------------------------------------|-----------------------------||
|-------------------------------------------------|-----------------------------||
|-------------------------------------------------|-----------------------------||
|-------------------------------------------------|-----------------------------||
|
|-------------------------------------------------|-----------------------------||
|-20p16----16-18p15-16p13----13-16p13-15p11----11-|-/18-18-18-/20--/18-/16-/11--||
|-------17----------------13----------------12----|-----------------------------||
|-------------------------------------------------|-----------------------------||
|-------------------------------------------------|-----------------------------||
|-------------------------------------------------|-----------------------------||
|
|-------------------------------------------------|-----------------------------||
|-------------------------------------------------|-----------------------------||
|-------------------------------------------------|-------------3---------------||
|--6----------------------------------------------|---6---------3----6---5---3--||
|--6----------------------------------------------|---6---------1----6---5---3--||
|--4----------------------------------------------|---4--------------4---3---1--||