#1
I need to know what the names of these chords are:


e------0--------------0------------------------
B------1--------------3------------------------
G------2--------------2------------------------
D------0--------------0-----------------------
A----------------------------------------------
E----------------------------------------------

Any help would be great

Thanx!
^^The above is a Cryptic Metaphor^^


"To know the truth of history is to realize its ultimate myth and its inevitable ambiguity." Everything is made up and the facts don't matter.


MUSIC THEORY LINK
#2
A C E D
1 3 5 11 = A add11

D E A
1 2 5 = Dsus2
Last edited by bigmanwithanaxe at Oct 14, 2007,
#3
sorry, forgot to mention, how would i turn them into power chords?
^^The above is a Cryptic Metaphor^^


"To know the truth of history is to realize its ultimate myth and its inevitable ambiguity." Everything is made up and the facts don't matter.


MUSIC THEORY LINK
#5
D5 would be your power chord.
My name is Andy
Quote by MudMartin
Only looking at music as math and theory, is like only looking at the love of your life as flesh and bone.

Swinging to the rhythm of the New World Order,
Counting bodies like sheep to the rhythm of the war drums
#6
Well if you mean just a root and a 5th, that's just an A5 and D5

A5
|-------|
|-------|
|----2--|
|-7--2--|
|-7--0---|
|-5-----|
D5
|-----------|
|-----------|
|--------2--|
|-----5--0--|
|--12-7------|
|--10-------|
#7
thanks, this is great guys
^^The above is a Cryptic Metaphor^^


"To know the truth of history is to realize its ultimate myth and its inevitable ambiguity." Everything is made up and the facts don't matter.


MUSIC THEORY LINK