#2
checked it out...

sounds like:

Eb power chord twice then

e---------------
B---------------
G---------------
D---------------
A--------5--6---
E--6--8---------

then Eb again twice then

e---------------
B---------------
G---------------
D--8p6----------
A------8--6-----
E------------9--

hope that helps

-mike