Is there ANY way to get the beginning sound of the Halo Theme song??

#1
W H H Q Q Q Q Q H. W
|----------|-------------|---------------|--------------|-------------|
|----------|-------------|---------------|--------------|-------------|
|----------|-------------|------------2--|--------------|-------------|
|----------|--------2----|--4---5--4-----|--5---4-------|--2----------|
|----------|-------------|---------------|--------------|-------------|
|----------|-------------|---------------|--------------|-------------|
|
Q=110
Q Q H Q Q Q Q +W Q Q Q Q
|------------|-------------|------------|--------------|
|----2--3----|-2-----2-----|------------|--------------|
|-4----------|----2-----4--|-(4)--------|----------0---|
|------------|-------------|------------|----0--2------|
|------------|-------------|------------|-2------------|
|------------|-------------|------------|--------------|


>
Q H. Q Q Q Q Q H. W +W Wx3
|------------|-------------|------------|----------|------------|--------|
|------------|-------------|------------|----------|------------|--------|
|-2----------|----0--------|------------|----------|------------|--------|
|----4-------|-2-----4--2--|-4----------|-2--------|-(2)--------|--------|
|------------|-------------|----5-------|----------|------------|--------|
|------------|-------------|------------|----------|------------|--------|


The sound, I guess you would call it a chorus or choir sound, is there ANY way to mimick this sound? I've seen it done but no modern pedal has this sound in it, and I cant seem to find anything that could get this sound.
My guitar is not a thing. It is an extension of myself. It is who i am.
#2
a chorus perhaps?
Quote by Stephen Colbert
Ignorance is bliss. Oedipus ruined a great sex life by asking too many questions.
Quote by Jack Off Jill
Is it odd that I get an erection every time RageAgainst... posts?

President of "Colbert Nation "
#3
I take it as you've never heard it. As chorus for a guitar doesn't equal the chorus I mean in this song.
My guitar is not a thing. It is an extension of myself. It is who i am.
#4
Quote by silentscope1234
I take it as you've never heard it. As chorus for a guitar doesn't equal the chorus I mean in this song.

No, he means an actual chorus. Get a chorus. People singing, you know?
Quote by Meths
Really, it's quite gutting that we'll all be dead by the time the earth is entirely underwater because I really want to stick your head underwater while standing on Everest and say "if sea levels aren't rising, HOW COME YOU'RE DYING?!"
#8
Erm a chorus pedal to get a fuller effect, bit of delay, slight use of the wah pedal and a volume pedal. And instead of being ohhh noises it would be wahh but thats all I could think of.
Quote by cakemonster91

*chuckle* A peanut. With a face.



Go to your staff paper and re-write this song a half step down so on the paper it'll be like you have a "C" just move it down to a "B#"




Know your theory, then play like you don't.

#10
hmm, well, for $475 I can live without the Halo effect. I guess volume swells, wahs, delay, and chorus is my best option, luckily I have all of them at my disposal.
My guitar is not a thing. It is an extension of myself. It is who i am.
#11
Quote by silentscope1234
hmm, well, for $475 I can live without the Halo effect. I guess volume swells, wahs, delay, and chorus is my best option, luckily I have all of them at my disposal.




This one's cheaper:
http://www.dolphinmusic.co.uk/page/shop/flypage/product_id/14585/a/r/e/base

But yeah, unless you have more use for sampling, I wouldn't recommend spending money on all that. If it's for a one-off gig or something, get a choir in.