#1
Since I posted this just now on a Saturday it will take long to get up there so I decided to post it here to give you guys a peek. This is my first tab but I take any criticism.::::::


-------------------------------------------------------------------------------
Stricken - Disturbed
-------------------------------------------------------------------------------
Tabbed by: Disturbed756


Tuning: Drop C

Intro:

e|---------------------------------------------------------------------------|
B|---------------------------------------------------------------------------|
G|---------------------------------------------------------------------------|
D|-0--8--7---2--3---3--5---5--3---3--5-0---------7-7-7-7-7-7-7-7--5-5-5-5-5-5-5-5--------------|
A|-0--8--7---2--3---3--5---5--3---3--5-0-(x3)----7-7-7-7-7-7-7-7--5-5-5-5-5-5-5-5--(repeats;x2)|
E|-0--8--7---2--3---3--5---5--3---3--5-0---------7-7-7-7-7-7-7-7--5-5-5-5-5-5-5-5--------------|

Verse:

e|---------------------------------------------------------------------------|
B|---------------------------------------------------------------------------|
G|---------------------------------------------------------------------------|
D|x(PM)--0--0-0--0-0-0-0--0-0--3-5-3---0--0-0--3-5-0--3-5-3-0---7-7-7-7-7-7-7-7--5-5-5-5-5-5-5-5---------------|
A|x(PM)--0--0-0--0-0-0-0--0-0--3-5-3---0--0-0--3-5-0--3-5-3-0---7-7-7-7-7-7-7-7--5-5-5-5-5-5-5-5---(repeats;x2)|
E|x(PM)--0--0-0--0-0-0-0--0-0--3-5-3---0--0-0--3-5-0--3-5-3-0---7-7-7-7-7-7-7-7--5-5-5-5-5-5-5-5---------------|

Chorus:

e|---------------------------------------------------------------------------|
B|---------------------------------------------------------------------------|
G|---------------------------------------------------------------------------|
D|-7---5--7--9-------------------------------------------------------------------|
A|-7---5--7--9---(repeats;5,or,6,times,listen,to,the,song.)----------------------------------------------------------------|
E|-7---5--7--9-------------------------------------------------------------------|

There Ya Go!!!!! This is my first so it kinda or probably really sucks but I take all criticism. Yes, I can play this song better than this tab but it's so hard to keep track from listening to the song.
===============================================================================
#2
this doesnt belong in this forum. submit the tab to the website.....
...Nothing you've ever...
...Planned on ever turned out...
...The way you planned...


...You're still disappointing them...
#5
dont you just hate people that dont know how to read the rules post...i know i do few sher
Quote by unfathomable_bo
Well it isnt hard to bend a string that has the tension of a piece of well cooked spaghetti, especially when you have hands like goalkeeper gloves


My songs: (more to come) (C4C's)
Screams fell silent underneath the black sun
#6
yep. this is your song. right?

EDIT: oh wait it's not. Well put it in the right forum.
Last edited by British_Steal at Oct 21, 2007,
#7
why are you wasting your time writing songs for disturbed? they're famous. if you're writing their songs, use them for yourself!


if someone doesn't get my humor read the post above mine and if you still dont, just give up.
...Nothing you've ever...
...Planned on ever turned out...
...The way you planned...


...You're still disappointing them...