#1
It's driving me crazy, its one of those 70-80s riff which gois something like

      E  E  E  Q    E  Q       E  E  E  Q    E  Q       E  E  E  Q    E  Q     
E||-------------------------|------------------------|------------------------|
B||---3---------------------|--3---------------------|--3---------------------|
G||*--2--2--0--2----2--L----|--2--2--0--2----2--L----|--2--2--0--2----2--L----|
D||*-----2--0--2----2--L----|-----2--0--2----2--L----|-----2--0--2----2--L----|
A||-------------------------|------------------------|------------------------|
E||-------------------------|------------------------|------------------------|


           |----3----|       
  H        Q    Q    Q    10x
---------------------------||
---------------------------||
--2--------3----4----5----*||
--2--------3----4----5----*||
--0--------1----2----3-----||
---------------------------||

Anyone?
#2
Know any of the lyrics?
Quote by SomeoneYouKnew
You should be careful what you say. Some asshole will probably sig it.

Quote by Axelfox
Yup, a girl went up to me in my fursuit one time.

Quote by Xiaoxi
I can fap to this. Keep going.
#4
I pretty much only listen to 70's and 80's, and it doesn't ring a bell at all.


80th best UGer