#1
Hi,

I'm trying to play Piece of the Rock (Mothers Finest). Can't find a tab or midi anywhere on the net so I figured some things out by myself. Can anyone help?
I'm going to play it in a band with one guitar so it hasn't got to be just the same as on the record (where are more guitars).

If you dont know the song: this is a live performance on youtube (it's isn't just the same as on the record): http://www.youtube.com/watch?v=Gxlgb_5BMHU

This is what i've got 'til now:

Riff 1

E||--------------------------|-------------------------|
B||-----5--------5--------5--|-------------------------|
G||-----4--------4--------4--|-------------------------|
D||-----2--------2--------2--|-------------------------|
A||--------------------------|-----------4----5--4--5--|
E||--x-----x--x-----x--x-----|--x--x--x----------------|


--------------------------|---------------------||
--5--5--------5-----------|---------------------||
--4--4--------4-----------|---------------------||
--2--2--------2-----------|--0g2--0-------------||
--------------------------|----------3--0-------||
--------x--x-----x--x--x--|----------------3----||


Riff 2

|-----------------------|-----------------------|-----------------------|-----------------------||
|-----------------------|-----------------------|-----------------------|-----------------------||
|-----------------------|-----------------------|-----------------------|-----------------------||
|----------2-------2----|----------4-------4----|----------5-------5----|----------7-------7----||
|--0----0-------0-------|--0----0-------0-------|--0----0-------0-------|--0----0-------0-------||
|-----------------------|-----------------------|-----------------------|-----------------------||


Riff 3

The chords E - D - E - ??? are played twice. Can't figure out the last one. Someone told me it's an F10?

Little bridge riff 3 > riff 4

E||------------------------|---------------------------|
B||------------------------|---------------------------|
G||------------------------|---------------------------|
D||--------------------10--|---L-----------------------|
A||---------------------8--|---L--7--6--5--------------|
E||------------------------|---------------6--7--6--5--|


Riff 4

--------------------------|
--------------------------|
--------------------------|
--------------------------|
--------------------------|
--0--0--4--5--6--7--6--5--|


and the last time they play

|-----------------------|
|-----------------------|
|-----------------------|
|--------------------10-|
|--0--0--4--5--6--7--8--|
|-----------------------|


After that it's the little bridge riff 3 > riff 4 again and than back to riff 1.

Ok, comments are welkom!

Thanks,
Paul
Last edited by pbkoning at Oct 22, 2007,