#1
yo i really want to learn this song. wicker plane its such and epic riff. iv tried but not gotten very close. i could really use some help.
Ok take it from some one who knows iv taken music therory and AP music theroy it helps its not that bad even if they do tell you power cords are lame
#2
im trying to get somebody to tab Camilo by State Radio in guitar pro so im gonna bump your thread for having grea taste in music

ill see if i can figure this riff out for you though
Gear:
Carvin Bolt-T -> Line 6 DL-4 -> Danelectro Fish and Chips -> Homemade Fuzz -> Epiphone Valve Junior Combo -> Amplitube and Guitar Rig.
#3
just submitted a guitar pro tab of the intro, it doesnt sound perfect, but at least its a start.
Gear:
Carvin Bolt-T -> Line 6 DL-4 -> Danelectro Fish and Chips -> Homemade Fuzz -> Epiphone Valve Junior Combo -> Amplitube and Guitar Rig.
#4
guess that got rejected, but heres what ive got
     <                                                 
                                  |--3--|              
     W                   E  E  E  S  S  S E  E  E  E   
E||-------------------|-------------------------------|
B||-------------------|-------------------------------|
G||-------------------|-------------------------------|
D||-------------------|-------------------------------|
A||-------------------|-----------3h-4p-3-------------|
E||--0----------------|--0--3--6----------6--0--3--6--|


              |--3--|                      |--3--|              
  E  E  E  E  S  S  S E  E  E     E  E  E  S  S  S E  E  E  E   
-------------------------------|-------------------------------|
-------------------------------|-------------------------------|
-------------------------------|-------------------------------|
-----------3--3h-5p-3----0-----|-------------------------------|
--3--4--5-------------5-----5--|-----------3h-4p-3-------------|
-------------------------------|--0--3--6----------6--0--3--6--|


              |--3--|                                                   
  E  E  E  E  S  S  S E  E  E     W                   W                 
-------------------------------|-------------------|-------------------|
-------------------------------|-------------------|-------------------|
-------------------------------|-------------------|-------------------|
-----------3--3h-5p-3----------|-------------------|-------------------|
--3--4--5-------------5--L--L--|--L----------------|--L----------------|
-------------------------------|-------------------|-------------------|
Gear:
Carvin Bolt-T -> Line 6 DL-4 -> Danelectro Fish and Chips -> Homemade Fuzz -> Epiphone Valve Junior Combo -> Amplitube and Guitar Rig.
#6
sweet thanks guys.
Ok take it from some one who knows iv taken music therory and AP music theroy it helps its not that bad even if they do tell you power cords are lame