#1
Can someone watch this video and tell me the chord shapes that are being played???
Icant seem to get them for some reason......I know its should be simple........And I know the song is sappy but its my anniversary this week and would like to play this for my girl...Thanks in advance...


http://youtube.com/watch?v=58ohuUw1lBg
#2
It's in C#,G#,C#,F,G#,C# tuning

chords are

C#||---------------|---------------|-----------------|
G#||---------------|---------------|-----------------|
F ||-----------0---|-----------5---|-----------8-----|
C#||--------2------|--------7------|--------11-------|
G#||-----0---------|-----5---------|-----9-----------|
C#||--0------------|--5------------|--9--------------|


or

C#||---------------|---------------|-----------0-----|
G#||---------------|---------------|-----------------|
F ||-----------0---|-----------5---|-----------------|
C#||--------2------|--------7------|--------11-------|
G#||-----0---------|-----5---------|-----9-----------|
C#||--0------------|--5------------|--9--------------|
"That was it, a nick. Now happily paid for. [...] It was decided that it was so far away in time and influence that...well, you only get caught when you're successful. That's the game". Robert Plant