#1
I was wondering if anyone could tab out:


This Isn`t The Tenka-Ichi-Budokai (click)
caught in a flood (click)

Guitar pro would be awesome but I'm satisfied with text

Thanks for reading.

Thanks in advance if someone actually does it.

Greets.

Yamaha RBX A2
Ampeg BA600-115 1 x 15 Bass Combo
#2
I know I'm not actually allowed to bring it up, but it has been a month and well I've tried the intro myself of the song This Isn`t The Tenka-Ichi-Budokai. And that's as far as I can get. And I'm not even sure it's right so could anyone help please?

Clean:

e|-----------------------------------------|
B|-----------------------------------------|
G|-----------------------------------------|
D|-----------------------------------------| 1X
A|---7-9-----7-9-7-5----7-9-----7-9-7-5(nh)|
E|0-------0----------0-------0-------------|

e|-----------------------------------------|
B|-----------------------------------------|
G|-----------------------------------------|
D|-----------------------------------------|
A|---7-9br-7----7-9-7-5----7-9b-9(nh)---9-7| 1X
E|0----------0----------0------------0-----|

e|-----------------|
B|-----------------|
G|-----------------|
D|9---7---7h9p7-9--| few X
A|--7---7---------7|
E|-----------------|


That's as far as I can get.

Yamaha RBX A2
Ampeg BA600-115 1 x 15 Bass Combo
#5
sorry to double post again but I have an update after watching a video

     Q    E  H        E     Q    E  Q    E  Q       Q    E  H        E   
E||----------------------|-----------------------|----------------------|
B||----------------------|-----------------------|----------------------|
G||----------------------|-----------------------|----------------------|
D||-------2--4--------L--|-------2--4----2--0----|-------2--4--------L--|
A||----------------------|-----------------------|----------------------|
E||--3-------------------|--3--------------------|--3-------------------|


                    NH                                                     
  Q    E  Q    E    Q       Q    E  Q     Q    E     Q    E  Q    E  Q     
-------------------------|------------------------|-----------------------|
-------------------------|------------------------|-----------------------|
-------------------------|------------------------|-----------------------|
-------2--4----2--<>5----|-------2--4b----4----2--|-------2--4----2--0----|
-------------------------|------------------------|-----------------------|
--3----------------------|--3---------------------|--3--------------------|


                       NH                                                       
  Q    E  Q     Q      E     Q    E  H        E     E  E  E  E  S  S  E  E  E   
--------------------------|----------------------|-----------------------------|
--------------------------|----------------------|-----------------------------|
---------------------<>5--|----------------------|--4-----2-----2h-4p-2--4-----|
-------2--4b----L---------|-------4--2--------L--|-----2-----2--------------2--|
--------------------------|----------------------|-----------------------------|
--3-----------------------|--3-------------------|-----------------------------|


  E  E  E  E  S  S  E  E  E     E  E  E  E  S  S  E  E  E   
-----------------------------|-----------------------------|
-----------------------------|-----------------------------|
--4-----2-----2h-4p-2--4-----|--4-----2-----2h-4p-2--4-----|
-----2-----2--------------2--|-----2-----2--------------2--|
-----------------------------|-----------------------------|
-----------------------------|-----------------------------|


  E  E  E  E  S  S  E  E  E    
-----------------------------||
-----------------------------||
--4-----2-----2h-4p-2--4-----||
-----2-----2--------------2--||
-----------------------------||
-----------------------------||


It was played more to the neck but the notes were (almost) the same.

Yamaha RBX A2
Ampeg BA600-115 1 x 15 Bass Combo
#6
If anyone could just do the distortion part I'd be happy, it's probably just powerchords or octaves, I just can't figure it exactly which ones. Please help, this thread is here a long time already and I really want this tab.

Yamaha RBX A2
Ampeg BA600-115 1 x 15 Bass Combo