#1
any one have the rest of the tab for botnus i have
the intro
--------------------------------------------
--------------------------------------------
--------------5-----------------------------
---7--5--7--5--7---5---7-----7---------
---7--5--7--3--7---5---7-----7---------
---5--3--5------5--3---5-----5---------

the verse

d------------------------------------------
a--------4--------4------4----55777555----
e---2-2---2---2------2---------------

so i need the chorus and the clean part and the solo any one got it (bad english
Guitars:
Gibson Les Paul Studio
Parker Nitefly with SD Hotrails and JB Two Tone

Amp
Marshall dsl 401

Effect:
Boss DD-6
EHX Big Muff