#1
ok so im tryin to play this

---------------------------------------------------------------------
--------------------------------------------------------------------
---------------------------------------------------------------------
-------------------------------------5p4p0h2-------------------------------
--------3----3-------3----3----------------------------------------------
---0-0----0----0-0----0----0-0---------------------------------------------
p.m------------------------------

its pretty fast, and i was wondering how i stop those bottom 3 strings from ringing when doing the pull offs i cant figure out a way to make it work that seems economical.

So how would you guys go about muting that?
#3
uhm, just rest the palm of your right hand lightly on the bridge.
Leader of The Cult of Echoes, for those who believe 23 min. of Pink Floyd Epicness just isn't enough.

Pm Alex the Red if you're interested



I'm a member I Pignose Amps Club. PM Woodenbanman if your interested.
#4
what song is this?
Quote by TunerAddict,mdawg24
+Infinity

Listen to ExtremeMetalFTW, he knows what he is talking about...

Quote by vmanoman
I clicked System Restore and it said "System Restore Is Unable To Protect You".

^^SO KVLT!!
#5
ok, but then i would be muting the string that i want to ring wouldnt i?

its The Bled- red wedding
#6
No when you're palm muting those strings dont have you're whole hand over the entire brindge, just the ones that need to be palm muted.
#7
ok just to make sure you understand me

------------------------------------}
------------------------------------} trying to stop these three from ringing when i do the pull offs
------------------------------------}
---------------5p4p0h2---------
------------------------------------
-----------------------------------

i just dont see how i would put my palm on those and not the d string which i want to ring
#8
Oh those strings. Well hate to tell you this but it comes with practice. I had the same problem when I first tried the intro to Thunderstruck but eventually I got better and better
#10
try using the index finger of your fretting hand, it seems really difficult at first but you'll get better at it. Also, make sure when you pull off that you're not brushing those strings with your fingers