#1
I'm trying to learn one of the solos from Megadeth's Peace Sells (starts at 3:00)
Anyone got any tips to learning this solo or is it just a case of playing slowly and gradually speeding up? (this is my first proper "shred" solo)
Any helps much appreciated!



|--------------|---------------|
|--9b11-10b12--|--12b14-15b17--|
|--------------|---------------|
|--------------|---------------|
|--------------|---------------|
|--------------|---------------|

|-12----------------12-------------------------15b17-|
|----15-12-------12----15-12----12-------------------|
|----------14b16-------------14----14b16r14--12------|
|----------------------------------------------------|
|----------------------------------------------------|
|----------------------------------------------------|

|-15b17-15b17--15--15-|
|---------------------|
|---------------------|
|---------------------|
|---------------------|
|---------------------|

|-12----12-13-12----------12-13-12----------12-13-12-|
|----15----------15-12-15----------15-12-15----------|
|----------------------------------------------------|
|----------------------------------------------------|
|----------------------------------------------------|
|----------------------------------------------------|


|----------------------------12-15b17--17b19-|
|-15-13-12----------12-13-15-----------------|
|----------14-12-14--------------------------|
|--------------------------------------------|
|--------------------------------------------|
|--------------------------------------------|

|--19b21--20b22--|--22-19----19----------------|
|----------------|--------20----20-20b22-20b22-|
|----------------|-----------------------------|
|----------------|-----------------------------|
|----------------|-----------------------------|
|----------------|-----------------------------|

|-----------------|
|-20b22--20b22----|
|-----------------|
|-----------------|
|-----------------|
|-----------------|
[Member of the Ibanez S Players Club.] Pm striketalonx to join

Ibanez SA1260
Ibanez RGA8 w/DiMarzio PAF8s
Ibanez JS1200CA
Ibanez S470IB w/DiMarzio Tonezone (Bridge)
Laney LC50 Mark II
Boss ME-70
Last edited by im_atheist at Oct 27, 2007,
#2
Advanced Techniques forum?

And practice with a metronome.
Quote by Johnljones7443
my neew year reslosutions are not too drikn as much lol.

happy new yeeae guyas.