#1
------------------------------------------------------------------------
Hallelujah - Paramore
------------------------------------------------------------------------
Tabbed by: thunderscreem
Email: thunderscreem@gmail.com

Tuning: Drop D

Intro:

Guitar 1
e|--7-7-7/9-9-9/11-11-11/14-14-14-14-14-14--|
B|--0-0-0-0-0-0-0--0--0--0--0--0--11-11-11--|
G|------------------------------------------|
D|------------------------------------------|
A|------------------------------------------|
E|------------------------------------------|

Guitar2
e|-------------------|
B|-------------------|
G|-------------------|
D|--9-----6----2-----|
A|--9-14x-6-5x-2-6x--|
E|--9-----6----2-----|


Verse

e|-----------------------------|
B|-----------------------------|
G|-----------------------------|
D|--999--666-444-222--666-444--|
A|--999--666-444-222--666-444--|
E|--999--666-444-222--666-444--|

Interlude:

e|-------------------|
B|-------------------|
G|-------------------|
D|--9-----6----2-----|
A|--9-14x-6-5x-2-4x--|
E|--9-----6----2-----|

Chorus:

e|-------------------|
B|-------------------|
G|-------------------|
D|--9-----6----2-----|
A|--9-14x-6-5x-2-6x--|
E|--9-----6----2-----|

Repeat:
Verse
Interlude
Chorus

Riff:
e|---------------|
B|---------------|
G|---------------|
D|--9-----6------|
A|--9-15x-6-15x--|
E|--9-----6------|


| / slide up
| \ slide down
| h hammer-on
| p pull-off
| ~ vibrato
| + harmonic
| x Mute note
=========================================================================
#4
Quote by thunderscreem
yeah =) i've done that, but theres some say that you must post it here too

For real? I've never done that before, nor have I seen a rule about it. Huh. Are you sure you're right about that? I suppose I could be wrong too... I've just never heard of having to do that...
#6
Quote by thunderscreem
------------------------------------------------------------------------
Hallelujah - Paramore
------------------------------------------------------------------------
Tabbed by: thunderscreem
Email: thunderscreem@gmail.com

Tuning: Drop D

Intro:

Guitar 1
e|--7-7-7/9-9-9/11-11-11/14-14-14-14-14-14--|
B|--0-0-0-0-0-0-0--0--0--0--0--0--11-11-11--|
G|------------------------------------------|
D|------------------------------------------|
A|------------------------------------------|
E|------------------------------------------|

Guitar2
e|-------------------|
B|-------------------|
G|-------------------|
D|--9-----6----2-----|
A|--9-14x-6-5x-2-6x--|
E|--9-----6----2-----|


Verse

e|-----------------------------|
B|-----------------------------|
G|-----------------------------|
D|--999--666-444-222--666-444--|
A|--999--666-444-222--666-444--|
E|--999--666-444-222--666-444--|

Interlude:

e|-------------------|
B|-------------------|
G|-------------------|
D|--9-----6----2-----|
A|--9-14x-6-5x-2-4x--|
E|--9-----6----2-----|

Chorus:

e|-------------------|
B|-------------------|
G|-------------------|
D|--9-----6----2-----|
A|--9-14x-6-5x-2-6x--|
E|--9-----6----2-----|

Repeat:
Verse
Interlude
Chorus

Riff:
e|---------------|
B|---------------|
G|---------------|
D|--9-----6------|
A|--9-15x-6-15x--|
E|--9-----6------|


| / slide up
| \ slide down
| h hammer-on
| p pull-off
| ~ vibrato
| + harmonic
| x Mute note
=========================================================================



Why have you said it is Drop D tuning when it's all in standard tune? :|
#7
Well, i haven't seen anywhere that says you have to post tabs here before submitting them, but ah well.

If you do in future, make sure you use the 'Courier New' font so it comes up with correct format.

So it'll look like:

[font="Courier New"]Guitar 1
e|--7-7-7/9-9-9/11-11-11/14-14-14-14-14-14--|
B|--0-0-0-0-0-0-0--0--0--0--0--0--11-11-11--|
G|------------------------------------------|
D|------------------------------------------|
A|------------------------------------------|
E|------------------------------------------|

Guitar2
e|-------------------|
B|-------------------|
G|-------------------|
D|--9-----6----2-----|
A|--9-14x-6-5x-2-6x--|
E|--9-----6----2-----|


Verse

e|-----------------------------|
B|-----------------------------|
G|-----------------------------|
D|--999--666-444-222--666-444--|
A|--999--666-444-222--666-444--|
E|--999--666-444-222--666-444--|

Interlude:

e|-------------------|
B|-------------------|
G|-------------------|
D|--9-----6----2-----|
A|--9-14x-6-5x-2-4x--|
E|--9-----6----2-----|

Chorus:

e|-------------------|
B|-------------------|
G|-------------------|
D|--9-----6----2-----|
A|--9-14x-6-5x-2-6x--|
E|--9-----6----2-----|

Repeat:
Verse
Interlude
Chorus

Riff:
e|---------------|
B|---------------|
G|---------------|
D|--9-----6------|
A|--9-15x-6-15x--|
E|--9-----6------|

[/FONT]
#8
Quote by Ht666
Why have you said it is Drop D tuning when it's all in standard tune? :|

probly because the tab template on UG has the EADGBe already on there and he's missed it/forgot to change it.
Rhythm in Jump. Dancing Close to You.

Quote by element4433
Yeah. people, like Lemoninfluence, are hypocrites and should have all their opinions invalidated from here on out.