#1
This is the second tab I've done... it got rejected, like my first did, thought I'd post it here.

I know there's tab of this song on the sit already, but I haven't looked at any of them, this is done by ear.

You need either a killswitch, or a dual pickup guitar with 2 volume's for this song. Turn one of the volumes all the way down, and flick it from middle position to the position with volume back to middle position while doing this:

Intro 6x:

e|-------------------------------------------------|
B|-------------------------------------------------|
G|-------------h2---------------h4p2---------------|
D|---h4p2h4p2h4--h4p2-h4p2h4p2h4----h2-------------|
A|-------------------------------------------------|
E|-------------------------------------------------|


e|-------------------------------------------------|
B|-------------------------------------------------|
G|-------------h2----------------------------------|
D|---h4p2h4p2h4--h4p2-h4p2h4p2h4p2=2=2h3-----------|
A|-------------------------------------------------|
E|-------------------------------------------------|

Pre-verse 3x:


e|-------------------------------------------------|
B|-------------------------------------------------|
G|-------------------------------------------------|
D|---------------2---------------------------------|
A|--4----4--4----0-----4----4----------------------|
E|--0h2--2--2--0----2--0h2--2----------------------|

e|-------------------------------------------------|
B|-------------------------------------------------|
G|-------------------------------------------------|
D|-----------------5--4--2~------------------------|
A|--4----4--4------3--2--0~------------------------|
E|--0h2--2--2--0-----------------------------------|

e|-------------------------------------------------|
B|-------------------------------------------------|
G|-------------------------------------------------|
D|---------------2---------------------------------|
A|--4----4--4----0-----4----4----------------------|
E|--0h2--2--2--0----2--0h2--2----------------------|

Strum this on the offbeat:

e|-------------------------------------------------|
B|-------------------------------------------------|
G|-------------------------------------------------|
D|---6----4----2-----------------------------------|
A|---4----2----0----2------------------------------|
E|------------------0------------------------------|

Third time do this instead:

e|-------------------------------------------------|
B|-------------------------------------------------|
G|------------------9~-----------------------------|
D|---6----4----2----x~-----------------------------|
A|---4----2----0----7~-----------------------------|
E|-------------------------------------------------|

Verse 6x:

e|-------------------------------------------------|
B|-------------------------------------------------|
G|-------------------------------------------------|
D|--4----------------2-3-4-------------------------|
A|-------------2--3-4---------------2--3--0--------|
E|----2--0--5--------------2--0--5-----------------|

Pre-verse 3x

Verse 6x

Bridge 4x:

PM|-------------------------------|
e|-------------------------------------------------|
B|-------------------------------------------------|
G|------------------------------------9------------|
D|------------------------------------x------------|
A|--4-4-4--------4-4-4-------4-4-4----7------------|
E|--2-2-2----0-0-2-2-2---0-0-2-2-2-----------------|

PM|-------------------------------|
e|-------------------------------------------------|
B|-------------------------------------------------|
G|-------------------------------------------------|
D|------------------------------------5-4-2--------|
A|--4-4-4--------4-4-4-------4-4-4----3-2-0--------|
E|--2-2-2----0-0-2-2-2---0-0-2-2-2-----------------|

Pre-verse x1

Solo x1 (I haven't figured out the solo yet, it's hard without a whammy pedal... if someone knows it, post it in the comments please)

I think before the last verse, he does this with some fancy whammy settings and wha:

e|-------------------------------------------------|
B|-------------------------------------------------|
G|---------7b--7b--7b--7b--7b--7hb-----------------|
D|-------------------------------------------------|
A|-------------------------------------------------|
E|-------------------------------------------------|

Verse 4x

Legend:
h - hammer on
p - pull off
~ - let it ring
b - bend
hb - half bend
= - let it ring, but flick the toggle switch still
#2
the other ones on this site are like, perfect, so its no wonder yours got rejected. yours doesnt cut it, im afraid. maybe u should spend ur time tabbing songs that havent already been perfectly tabbed. hmm just a thought there.....
#3
It would pretty hard to tab a rage song , but people have already done thisI could never tab a rage , song so your better than me if it helps.