#3
Wrong Forum.
If you absolutely need it perfect, why not correct it yourself?
time machine. Inadvertently, I had created a
#4
I was looking at this tab of the song and I was wondering do you downstroke or alternate pick this part?

Riff D
|--------------------------------------------------------------------|
|--------------------------------------------------------------------|
|--------------------------------------------------------------------|
|----------------------------------------------------------5-4-------|
|-2222222222222222-----------------------------------------3-2--5-4--|
|-00000000000000008888888888888888555555555555555533333333------3-2--|
........................................................
#5
Quote by swordsman14
I was looking at this tab of the song and I was wondering do you downstroke or alternate pick this part?

Riff D
|--------------------------------------------------------------------|
|--------------------------------------------------------------------|
|--------------------------------------------------------------------|
|----------------------------------------------------------5-4-------|
|-2222222222222222-----------------------------------------3-2--5-4--|
|-00000000000000008888888888888888555555555555555533333333------3-2--|
........................................................


I would guess alternate, unless your downstroke is like.......(what's a word for very fast?)
If you can bear to hear the truth you've spoken
Twisted by knaves to make a trap for fools,
Or watch the things you gave your life to, broken,
And stoop and build 'em up with worn-out tools
#6
Also I was thinking about using a metronome to get this song down right but the thing is how would I use the metronome with this song or any song in general but especially with this song since I'm speaking about it?