#1
I'm playing Always With Me, Always With You for the school variety show tomorrow and although I've been practicing, there's a part that I just can't pull off. Nothing I write in sounds good, so I'm asking for your help. Write in a part that will work, and that isn't too difficult. Thanks in advance.

  T         T       T
|----------------------------------|
|-12p10p8p7------------------------|
|------------9p7p6h7-9-(9)p7p6s4h7-|
|----------------------------------|
|----------------------------------|


 
             T           T             ~
|------------------------------------|-------------------|
|------------------------------------|-------------------|
|-(7)p6p4----------------------------|-------------------|
|---------h7-9p7p5p4h5h7-9p7p5p4-----|-------------------|
|--------------------------------7p5p|=4-------(4)/------|
|------------------------------------|-------------------|


Also, here's a YouTube vid of the song.

The part I can't do is from 1:09 to 1:13
I'm looking for a tab of The Marshall Plan, by Blue Oyster Cult, and of Mario Minor, by Powerglove. If you have one please PM me.
#2
Sorry guys, I gotta keep this bumped.
I'm looking for a tab of The Marshall Plan, by Blue Oyster Cult, and of Mario Minor, by Powerglove. If you have one please PM me.