#1
Hi everyone,

I've been trying to bass tab the song Breaking me down by soil because I think the tab on UG is wrong. Ive got everything other part of the song apart from the part were he sings:

"Breaking me down, Break me down sweet sugar, Breaking me down, Break me down, Breaking me down ot the ground sweet baby, Breaking me down to the ground!"

I can hear the bass, I think I've got the bass line to it, but it just doesn't seem right when I play it. I had it as this:

F |-----------------------------
C|-----------------------------
G|-----------------------------
C|-10-9-7777--10-9-5555

Any help would be appreciated...

Mat
#2
It's on UG and it's not wrong.

Here look, play it slowly at first, then quicker and it'll sound good:

Intro (0:07)
|------------|---------|
|------------|---------|
|---4-----4--|---4-43~-|
|-6--6--6--6-|-6--6----|

Verse (0:19)
|------| |-----|
|------| |-----|
|------| |-----|
|-6-66-| x4 |--6--|

Chorus (0:32)
|-----------|----------|
|-----------|----------|
|-5h7776666-|----------|
|-----------|-44442222-|

|-----------|----------|
|-----------|----------|
|-5h7776666-|-33333333-|
|-----------|----------|

Bridge (1:18)
|---------|----------------|
|---------|----------------|
|-7~--4~--|----------------|
|---------|-66-6-6-666-6-6-| x2

|------------------|----------------|
|------------------|----------------|
|-7777777744444444-|----------------|
|------------------|-66-6-6-666-6-6-|

|------------------|
|------------------|
|-7777777744444444-|

Source: http://www.ultimate-guitar.com/tabs/s/soil/breaking_me_down_btab.htm
#3
Im sorry, but that is wrong,

Just played the bit I wanted to tab in both drop C and D and they both sound wrong.

The intro riff goes:

F|--------------------------------
C|--------------------------------
G|-3-6-3--3-6-3--3-6-3-6-5~
C|--------------------------------


Thanks for trying to help anyway.

Mat