#1
Black Tide-Shockwave song
myspace.com/blacktide
I think that song is very cool and i would love to learn it on guitar. The only problem is that there is no guitar tab for it yet, and I'm not a good enough guitarist to learn it by ear. So if there is anyone who can create it i would be very appreciate you help.
#2
hmm... something tells me u are trying to promote a band
Quote by Saint of Steel
When you're climaxing shout:


'Show me where you're mother lives!'

See if that puts her off.

KMFDM FAN CLUB

Quote by Sabu
Get some 80s porn, you laugh a little, you jizz a little, it's a fun time.
#3
Quote by deathbyriley
hmm... something tells me u are trying to promote a band

nope. just want to learn the damn song.
#4
The song is tuned to standard D.
---------------------------------------------------------------- second time add end to it
---------------------------------------------------------------- 6 5 3 0 but all pull offs and pick
--2-------------------------------------------------------------- last note
--2--------------------------------------------------------------
--0---0--6/5--0--0--5/3--0--0--3/2---0------------------
----------------------------------------------------------------
#6
verse:

-----------------------------------------------------
------------------------------------------------------
--3---------------------------------------------------
--5--------------------------------------------------
--3---3--6p5--0--0--5p3--0--0--3p2---0---------------------
----------------------------------------------------------------


----------------------------------------------------------------
----------------------------------------------------------------
--7--------------------------------------------------------------
--7--------------------------------------------------------------
--5---5--6p5--0--0--5p3--0--0--3p2---0-------6p5p3p0---this last lick is played by second
----------------------------------------------------------------

the last lick is played by second guitar, check song for timing
#7
Chorus: this is the second guitar part the first chord in the verse is 355 not 353
the chords are the same the singer vocals. Do the same rhythm as gabriel "weeman"

-----------------------------------------------------
------------------------------------------------------
-----------------------------------------------------
--5--------------------------------------------------
--3-xx--5-------7--7--10--10--7---5----------------
---------3--xx---5--5--8----8---5---3-----------------

------------------------------------------------------
-----------------------------------------------------
--5--------------------------------------------------
--3-xx--5-------7--7--10--10------7-------------------
---------3--xx---5--5--8----8-------5--------------------

------------------------------------------------------
-----------------------------------------------------
-----------------------------------------------------
-----------------------------------------------------
--5----------------------------------7h----------------
--3-xx--5-------7--7--10--10-------------------------
---------3--xx---5--5--8----8-------------------------

------------------------------------------------------
-----------------------------------------------------
--5--------------------------------------------------
--3-xx--5-------7--7--10--10---5/7--------------
---------3--xx---5--5--8----8----3/5--------------
#8
part after chorus and before second verse:

----------------------10-----------------------------------------------
-----10---12--13-------10------10--12--13--12--10--12--10----- X3
--------------------------------------------------------------------------
-------------------------------------------------------------------
------------------------------------------------------------------

--15---------15---------15----------------seven times in total and end with
----------15---------15----------------- -----15/----- on E string
------15---------15--------------------
-------------------------------------
--------------------------------------
-------------------------------------
#9
pre solo: alternative pick as fast as you can for every note
play 7 times on 5th time 2nd guitar plays it up one octave

----------------------------------------------------------
-------------------------------------------------------
-------------------------------------------------------
----------------------------------------------------------
---0---0--3-5-7-0-5-7--------------------------------
--------------------------------------------------------
#10
backing solo: palm mute everything this is part one

---------------------------------------------------------
------------------------------------------------------------------------------------------------------------
--2-----------------------------------------5------------------------------------------------------------
--2-----------------------------------------5-----------------------------------------------------------
--0---0-0-0-0-0-0-0-0-0-0-0-0-0-0---3---3-3-3-3-3-3-3-3-3-3-3-3-3---
-----------------------------------------------------------------------------------------------------

--------------------------------------------------------------------------------------------
---------------------------------------------------------------------------------------------
--7----------------------9----7---2----------------------------------------------------------------
--7----------------------9----7---2------------------------------------------------------------
--5---5-5-5-5-5-5----7----5---0---------------------------------------------------------------------
---------------------------------------------------------------------------------------------
#11
backing solo: palm mute everything this is part two

--------------------------------------------------------------------------------------------
-----------------------------------------------------------------------------------------
---7--------2---------5-------2-------------------------------------------------------------
---7--------2---------5-------2---------7------9-----7-----2------------------------------------
---5--------0---------3-------0---------5------7-----5-----0-----------------------------------
----------------------------------------------------------------------------------------
#12
Quote by trashyant
backing solo: palm mute everything this is part one

---------------------------------------------------------
------------------------------------------------------------------------------------------------------------
--2-----------------------------------------5------------------------------------------------------------
--2-----------------------------------------5-----------------------------------------------------------
--0---0-0-0-0-0-0-0-0-0-0-0-0-0-0---3---3-3-3-3-3-3-3-3-3-3-3-3-3---
-----------------------------------------------------------------------------------------------------

--------------------------------------------------------------------------------------------
---------------------------------------------------------------------------------------------
--7----------------------9----7---2----------------------------------------------------------------
--7----------------------9----7---2------------------------------------------------------------
--5---5-5-5-5-5-5----7----5---0---------------------------------------------------------------------
---------------------------------------------------------------------------------------------



Alright, thanx a lot. I got most of it down already. This part is kinda hard go get, but i'll get it eventually
#13
Quote by trashyant
The song is tuned to standard D.

sorry to ask a very newbie question, but standard D is drop D, or something else??
#14
Quote by supasam117
sorry to ask a very newbie question, but standard D is drop D, or something else??


Standard D is where you tune all strings down a whole step so instead of DADGBE it would be DGCFAD.
#15
was wondering if anyone can help me get the bass tab for shockwave by black tide.
#16
Cud u possibly put it on the part of the site where u can look 4 tabs n u dun ave 2 b a member pls. Cos I got some frends tha wanna learn it
#17
-----------------------------------
------------8-7-------------------
----2-2----7-7-------------------
----2-2----7-7-------------------
----0-0---------------------------
-----------------------------------
i couldnt find this tab so i tried it on a half-step down tuned guitar
and i couldnt find the rest of the chords for the main riff, so this is pretty much
all i got
#18
hey everybody, i posted it on the main site, and i corrected a few things, so i suggest you guys check it out
#19
Quote by mmm802
was wondering if anyone can help me get the bass tab for shockwave by black tide.

Yeah i have bass tabs for it somewhere. ill have to find them.