#1
http://www.youtube.com/watch?v=ujJhp0gnARo

thanks to anyone that has the time to tab this =)
Quote by hug a llama
Dude, if a title read "penis pics, come on in" I think about 93% of UG would still click on it.


Quote by Burpin'Worm
Nonsense. I'm telling you, nothing makes the fairer sex swoon like an extensive knowledge of siege weaponry and medieval battle tactics.
#3
Here is what I have done so far. Maybe somebody can help me tab it better. Thanks to Deadlezz for the original tabs ( http://www.youtube.com/watch?v=xNGuCYB3vkk ).

Tuning: Dropped B

Intro:

  S S S S S S S S S S S S S S S S  
----------------------------------|
----------------------------------|
----------------------------------|
----------------------------------|
----------------------------------|
--1-1-1-1-3-3-3-3-3-3-3-3-6-3-3-3-|


  S S S S S S S S  S  S  S  S  S  S  S  S  
------------------------------------------|
------------------------------------------|
------------------------------------------|
------------------------------------------|
------------------------------------------|
--3-3-3-3-6-3-3-3-13-10-10-10-10-10-10-10-|


   S S S S S S S S S S S S S S S S  
-----------------------------------|
-----------------------------------|
-----------------------------------|
-----------------------------------|
-----------------------------------|
--13-9-9-9-9-9-9-9-1-1-1-1-3-3-3-3-|


  S S S S S S S S S S S S S S S S  
----------------------------------|
----------------------------------|
----------------------------------|
----------------------------------|
----------------------------------|
--3-3-3-3-6-3-3-3-3-3-3-3-6-3-3-3-|


   S  S  S  S  S  S  S  S  S S S S S S S S  
-------------------------------------------|
-------------------------------------------|
-------------------------------------------|
-------------------------------------------|
-------------------------------------------|
--13-10-10-10-10-10-10-10-13-9-9-9-9-9-9-9-|


Verse:

  S S S E  S S  S  E  S E  S S  S            
----------------------------------|----|----|
----------------------------------|----|----|
----------------------------------|----|----|
----------------------------------|----|----|
--------8----5h-6p-5----2----2S-5-|----|----|
--0-0-0----0----------0----0------|----|----|


Bridge (Guitar 1):

  S S S S S S S S S S S S S S S S  
----------------------------------|
----------------------------------|
----------------------------------|
----------------------------------|
----------------------------------|
--0-0-0-0-0-0-0-0-0-0-0-0-0-0-0-0-|


  S S S S S S S S S S S S S S S S  
----------------------------------|
----------------------------------|
----------------------------------|
----------------------------------|
----------------------------------|
--0-0-0-0-6-6-6-6-6-6-6-6-6-6-6-6-|


  S S S S S S S S S S S S S S S S  
----------------------------------|
----------------------------------|
----------------------------------|
----------------------------------|
----------------------5-5-5-5-5-5-|
--6-6-6-6-6-6-6-6-6-6-------------|


  S S S S S S S S S S S S S S S S  
----------------------------------|
----------------------------------|
----------------------------------|
----------------------------------|
--5-5-5-5-3-3-3-3-3-3-3-3-1-1-1-1-|
----------------------------------|


  S S S S S S S S S S S S S S S S  
----------------------------------|
----------------------------------|
----------------------------------|
----------------------------------|
----------------------------------|
--6-6-6-6-6-6-6-6-6-6-6-6-8-8-8-8-|


  S S S S S S S S S S S S S S S S  
----------------------------------|
----------------------------------|
----------------------------------|
----------------------------------|
----------------------------------|
--8-8-8-8-0-0-0-0-0-0-0-0-0-0-0-0-|


  S S S S S S S S S S S S S S S S  
----------------------------------|
----------------------------------|
----------------------------------|
----------------------------------|
----------------------------------|
--0-0-0-0-0-0-0-0-6-6-6-6-6-6-6-6-|


  S S S S S S S S S S S S S S S S  
----------------------------------|
----------------------------------|
----------------------------------|
----------------------------------|
----------------------------------|
--6-6-6-6-6-6-6-6-6-6-6-6-6-6-3-3-|


  S S S S S S S S S S S S S S S S  
----------------------------------|
----------------------------------|
----------------------------------|
----------------------------------|
----------------------------------|
--3-3-3-3-3-3-3-3-3-3-3-3-3-3-3-3-|


  S S S S S S S S S S S S S S S S  
----------------------------------|
----------------------------------|
----------------------------------|
----------------------------------|
----------------------------------|
--3-3-3-3-6-6-6-6-6-6-6-6-6-6-6-6-|


  S S S S S S S E  S E  S  S  E   
---------------------------------|
---------------------------------|
---------------------------------|
---------------------------------|
----------------8----6--5h-6p-5--|
--8-8-8-8-0-0-0----0-------------|


  PM PM PM PM  
  E  E  E  E   
--------------|
--------------|
--------------|
--------------|
--0--0--0--0--|
--0--0--0--0--|


Duration Legend
---------------
W - whole
H - half
Q - quarter
E - 8th
S - 16th
T - 32nd
X - 64th
. - note dotted
|-n-| - n-tuplets


Tablature Legend
----------------
L - tied note
x - dead note
g - grace note
(n) - ghost note
> - accentuded note
NH - natural harmonic
AH - artificial harmonic
TH - tapped harmonic
SH - semi harmonic
PH - pitch harmonic
h - hammer on
p - pull off
b - bend
br - bendRelease
pb - preBend
pbr - preBendRelease
brb - bendReleaseBend
\n/ - tremolo bar dip
\n - tremolo bar dive
-/n - tremolo bar Release up
/n\ - tremolo bar inverted dip
/n - tremolo bar return
-\n - tremolo bar Release down
S - shift slide
s - legato slide
/ - slide into from below or out of upwards
\ - slide into from above or out of downwards
~ - vibrato
W - wide vibrato
tr - trill
TP - tremolo picking
T - tapping
S - slap
P - pop
< - fade in
^ - brush up
v - brush down