#1
What Scale is this solo in ?

[size="1"]       PM|          PM------------------|
|-----------------|--------------------------------------------------------|
|-----------------|-------------------------14-16-14----14-----------------|
|-----------------|----------------13-15-16----------16----16-15-(15)------|
|------------11---|----------13-14-----------------------------------------|
|-11---13-14------|-13-14-16-----------------------------------------------|
|-----------------|--------------------------------------------------------|


|----------------16-|
|----------16-17----|
|-15-16-15----------|
|-------------------|
|-------------------|
|-------------------|


|-------18-19-18-16-16-18-|-19-18-16-18-16--------------------------|
|-17----------------------|----------------17-16-14-16-14-----------|
|----18-------------------|-------------------------------16-13-15--|
|-------------------------|-----------------------------------------|
|-------------------------|-----------------------------------------|
|-------------------------|-----------------------------------------|


|-16-------18-------|-19-------18-19-18s16-18s16-------------|
|-19b21----21b23----|-22b24----------------------17-14-16----|
|-------------------|----------------------------------------|
|-------------------|----------------------------------------|
|-------------------|----------------------------------------|
|-------------------|----------------------------------------|


|-------------------------|----------------------------------|
|-16s14-(14)--14s19-(19)--|-16-17-16-14-16-14----14----------|
|-------------------------|-------------------16----16-15----|
|-------------------------|----------------------------------|
|-------------------------|----------------------------------|
|-------------------------|----------------------------------|[/SIZE]
#2
looks like Ab Phrgyian but played in differnt shapes, It's Ab for sure. Unless you're in a different tuning
Originally posted by germ
all of you shut up, or i swear ill turn this car RIGHT AROUND!!!!!

*closed*

damn. i was never good at magic tricks.
#3
Quote by Chemicalwarfare
looks like Ab Phrgyian but played in differnt shapes, It's Ab for sure. Unless you're in a different tuning


its Tuned to C
#6
i see G#, A#, B, C#, D#, E

minor 3rd and 6th. that's just G# harmonic minor

but since it's tuned in C, then it's F# harmonic minor