#1
Can someone tab some songs of The Amity Afflictions EP "High Hopes" for me.
Thanks in advance.
OPTIMUS PRIME
#2
Amity Affliction - Cornerstone of Misery
Selft-Titled EP

Drop D
Intro – Guitar 1 (with delay)
|-------------------------------------------------------|
|-9--8--6—9p8-6--8-8/9--/11-13p11-9-8------|
|-------------------------------------------------------|
|-------------------------------------------------------|
|-------------------------------------------------------|
|-------------------------------------------------------|

Guitar 2 – Alternate picking
|--------------------------------------------------------------|
|---------16------------16--------------------------------------|
|-----13-----13----13----13--------8---------8--------------|
|-15------------15-----------------6----6----6--6------------|
|---------------------------------8----------8------------------|
|--------------------------------------------------------------|

I'm still in the process of tabbing but this is what i have so far.
it sounds pretty right to me except maybe there might be another note in the 9p8 part but yea.
Enjoy.
Appreciate it if you take no credit for what i have so far aswell